Guitar Tabs, Chords and Lyrics


Pulse Rate   Various Artists



standard tuning    Pulse Rate by:Skylit Romance

intro                                                       muted notes-x
[-------------]---------------------------------------|     slide down-/
[-------------]---------------------------------------|     beginning of section-[
[-------------]---------------------------------------|     end of section-]
[x-x--x-x--x-x]---------------------------------------|     hold out note-=
[x-x--x-x--x-x]12---10/-4--2-1-4--4-3-6--6-5-8--------|
[x-x--x-x--x-x]12---10/-2--2-1-4--4-3-6--6-5-8--------|


-------------------------------]
-------------------------------]
-------------------------------]x3
-------------------------------]
8-7-10/-4--5-5-7--4--5-5-7-----]
8-7-10/-2--3-3-5--2--5-5-5-----]

chorus
[-----------------------------------------------]
[-----------------------------------------------]
[-----------------------------------------------]x4
[-------------------13-13-13-12-----13-13-13-12-]
[7-8-9-10-9-10--000-11-11-------000-11-11-------]
[5-6-7-8--9-10--000-------------000-------------]


Awesome chug
[----------------------------------------------------------------]
[----------------------------------------------------------------]
[----------------------------------------------------------------]x2
[-000-000-00-000-13-000-000-00-000-13-000-000-00-000-13-13-13-12-]
[-000-000-00-000-11-000-000-00-000-11-000-000-00-000-11-11-------]
[-000-000-00-000----000-000-00-000----000-000-00-000-------------]


chorus
[--------------------------------------------]
[--------------------------------------------]
[--------------------------------------------]x2
[------------------13-13-13-12----13-13-13-12]
[7-8-9-10-9-10-000-11-11------000-11-11------]
[5-6-7-8--9-10-000------------000------------]


awesome chug #2
[---------------------------------------13-12]
[---------------------------------13-12------]
[---------------------------13-12------------]x3
[0000-000-000-0000-13-13-12------------------]
[0000-000-000-0000-12------------------------]
[0000-000-000-0000---------------------------]


solo
[-12-13----12-13----12-13----12-13----12-13----12-13----12-13---12-13---|
[-------11-------11-------11-------10-------10-------10-------9-------9-|
[-----------------------------------------------------------------------|
[-----------------------------------------------------------------------|
[-----------------------------------------------------------------------|
[-----------------------------------------------------------------------|

[-12-13---12-13-]
[-------9-------]
[---------------]
[---------------]
[---------------]
[---------------]

chorus
[---------------------------------------------]
[---------------------------------------------]
[---------------------------------------------]x2
[---------------------------------------------]
[7-8-9-10-9-10-000-13-13-13-12-000-13-13-13-12]
[5-6-7-8--9-10-000-11-11-------000-11-11------]

outro
[21-21--21---21----21-----21-------21----------21=================]
[-----------------------------------------------------------------]
[-----------------------------------------------------------------]
[-----------------------------------------------------------------]
[-----------------------------------------------------------------]


Important: The song above is NOT stored on the Chordie server. The original song is hosted at www.guitaretab.com. Chordie works as a search engine and provides on-the-fly formatting. Chordie does not index songs against artists'/composers' will. To remove this song please click here.

This song is displayed as text-only. Transposing and tuning is only available for chordpro-songs.

Login - add to songbook

Rating click stars to rate

Layout
Accuracy

SHARE PAGE  




You need to log in to post comments