Guitar Tabs, Chords and Lyrics


Blues Shuffle   Various Artists



The Blues Shuffle

This is a simple song to play sounds good on electric and acoustic so have fun.

Any Corrections E-Mail me on nathansmith5552@hotmail.com


E|---------------------------------------------------------------------------|
B|---------------------------------------------------------------------------|
G|--------------------------------------------------------------0—2-3-2-0----|
D|------------0—2-3-2-0------------------0—2-3-2-0-------2-------------------|
A|-------2----------------2-------2------------------2-3---------------------|
E|---3------------------------3----------------------------------------------|


E|---------------------------------------------------------------------------|
B|---------------------------------------------------------------------------|
G|---------------------------------------------------------------------------|
D|------------0-2-3-2-0------------------------------------------------------|
A|-------2-------------------------------------------------------------------|
E|---3-----------------------------------------------------------------------|

| / slide up
| \ slide down
| H hammer-on
| P pull-off
| ~ vibrato
| + harmonic
| X Mute note


Important: The song above is NOT stored on the Chordie server. The original song is hosted at www.guitaretab.com. Chordie works as a search engine and provides on-the-fly formatting. Chordie does not index songs against artists'/composers' will. To remove this song please click here.

This song is displayed as text-only. Transposing and tuning is only available for chordpro-songs.

Login - add to songbook

Rating click stars to rate

Layout
Accuracy

SHARE PAGE  




You need to log in to post comments