Guitar Tabs, Chords and Lyrics


Beyblade Theme   Various Artists



This is my very first tab, I thought id start with something simple.  
I am extremely confident that it is 100% correct.  Enjoy:

Main Riff:

e|-------------4-4-4-4-4-4-4---------------------2-2-2-2-2-2-2--------|
B|--------------------------------------------------------------------|
G|--------------------------------------------------------------------|
D|--------------------------------------------------------------------|
A|-----------------------------------1h2-2-2-1h2----------------------|
E|-1h2-2-2-1h2--------------------------------------------------------|

Bridge:

e|----------------|
B|----------------|
G|----------------|
D|-6----8----9----|
A|-6----8----9----|
E|-4----6----7----|

Chorus 1:

e|----------------|
B|----------------|
G|-8----6----4----|
D|-8----6----4----|
A|-6----4----2----|
E|----------------|


Chorus 2:

e|----------------------------------------------|
B|----------------------------------------------|
G|-8----6----4----8----6----4-------------------|
D|-8----6----4----8----6----4----6----8----9----|
A|-6----4----2----6----4----2----6----8----9----|
E|-------------------------------4----6----5----|

Verse 1:
                                                       x2
e|----------------------------------------------------|
B|----------------------------------------------------|
G|----------------------------------------------------|
D|-4-x-x-4-x-x-4-x-x-4-x-x-9-x-x-9-x-x-9-x-x-9-x-x----|
A|-4-x-x-4-x-x-4-x-x-4-x-x-9-x-x-9-x-x-9-x-x-9-x-x----|
E|-2-x-x-2-x-x-2-x-x-2-x-x-7-x-x-7-x-x-7-x-x-7-x-x----|

Verse 2:
                                                       
e|--------------------------------------------------------|
B|--------------------------------------------------------|
G|--------------------------------------------------------|
D|-4-x-x-4-x-x-4-x-x-4-x-x-9-x-x-9-x-x-9-x-x-9-x-x--------|
A|-4-x-x-4-x-x-4-x-x-4-x-x-9-x-x-9-x-x-9-x-x-9-x-x--------|
E|-2-x-x-2-x-x-2-x-x-2-x-x-7-x-x-7-x-x-7-x-x-7-x-x--------|

e|--------------------------------------------------------|
B|--------------------------------------------------------|
G|--------------------------------------------------------|
D|-6-x-x-6-x-x-6-x-x-6-x-x-11-x-x-11-x-x-11-x-x-11-x-x----|
A|-6-x-x-6-x-x-6-x-x-6-x-x-11-x-x-11-x-x-11-x-x-11-x-x----|
E|-4-x-x-4-x-x-4-x-x-4-x-x-9--x-x-9--x-x-9--x-x-9--x-x----|


End Riff:
                            x4
e|-------------------------|   |--------------|
B|-------------------------|   |--------------|
G|-------------------------|   |--------------|
D|-4--4-4------------------|   |-4--4-4--4----|
A|-4--4-4------------------|   |-4--4-4--4----|
E|-2--2-2-5-7-5-5-7-5-5----|   |-2--2-2--2----|

Order:
Main Riff x2
Bridge
Verse 1
Chorus 1
Main Riff
Verse 2
Chorus 2
End Riff
                                         



Important: The song above is NOT stored on the Chordie server. The original song is hosted at www.guitaretab.com. Chordie works as a search engine and provides on-the-fly formatting. Chordie does not index songs against artists'/composers' will. To remove this song please click here.

This song is displayed as text-only. Transposing and tuning is only available for chordpro-songs.

Login - add to songbook

Rating click stars to rate

Layout
Accuracy

SHARE PAGE  




You need to log in to post comments