Guitar Tabs, Chords and Lyrics


Simpsons Theme Song   Various Artists



there are 2 ways you can play this song.
--0-2-5-3-0-----------------------------------------
1-----------1------------------0-0-0-1--------------
--------------2------0-------0----------------------
----------------4-4-4--4-4-4------------------------
----------------------------------------------------
----------------------------------------------------
or you can play it this way

----------------------------------------------------
----------------------------------------------------
--------2-0-----------------------------------------
----2-3-----2-0-------------------------------------
--3-------------0-000-1-000-1-3-000-1-000-1-3-5555--
----------------------------------------------------


Important: The song above is NOT stored on the Chordie server. The original song is hosted at www.guitaretab.com. Chordie works as a search engine and provides on-the-fly formatting. Chordie does not index songs against artists'/composers' will. To remove this song please click here.

This song is displayed as text-only. Transposing and tuning is only available for chordpro-songs.

Login - add to songbook

Rating click stars to rate

Layout
Accuracy

SHARE PAGE  




You need to log in to post comments

krzykat (report)

e|-----0--2--5--3--o-------------------------------------------------------|
B|--1-----------------2------------------------1111------------------------|
G|-----------------------3------------------4------------------------------|
D|--------------------------444--5--444--5---------------------------------|
A|-------------------------------------------------------------------------|
E|-------------------------------------------------------------------------|