"yes"; ?> insertsongandartist - guitar chords, guitar tabs and lyrics - chordie
 Amaj7Dmaj7A7D7A-7D-7A-7b5D-7b5
e|----------------------------------------------------------|
B|--5-------7-------5------7------5------6------4-------6---|
G|--6-------6-------6------5------5------5------5-------5---|
D|--6-------7-------5------7------5------7------5-------6---|
A|----------5--------------5-------------5--------------5---|
E|--5---------------5-------------5-------------5-----------|


 A-11D-11AdimDdimA13D9A11D11
e|---------(5)----------------------------------------(7)---|
B|--3-------6-------4-------6-------7------5-----3-----5----|
G|--5-------5-------5-------4-------6------5-----4-----5----|
D|--5-------5-------4-------6-------5------4-----5-----5----|
A|----------5---------------5--------------5-----------5----|
E|--5---------------5---------------5------------5----------|


 A7sus4D7sus4A7b5D7b5
e|--5-----------------------------------|
B|--5-------8---------4---------7-------|
G|--7-------5---------6---------5-------|
D|--5-------7---------5---------6-------|
A|--7-------5-------------------5-------|
E|--5-----------------5-----------------|


 A7#5D7#9D7b9A6D6A69D69Dmaj9A-6D-6
e|----------------------------------5------5-----------------------|
B|--6------6------4------5-----7----5------5-----5-------5------6--|
G|--6------5------5------6-----4----4------4-----6-------5------4--|
D|--5------4------4------4----------4------4-----4-------4---------|
A|---------5------5------------5----4------5-----5--------------5--|
E|--5--------------------5----------5--------------------5---------|
   A-9   D-9   A-69   D-69   A-(maj7)  D-(maj7)   D-9(maj7)
e|--7-----------7-------------------------------------------|
B|--5-----5-----5------5-------5---------6----------5-------|
G|--5-----5-----5------4-------5---------6----------6-------|
D|--5-----3-----4------3-------6---------7----------3-------|
A|--------5------------5-------7---------5----------5-------|
E|--5-----------5--------------5----------------------------|