Guitar Tabs, Chords and Lyrics


Speed And Accuracy   Various Artists



E||------------------------------------------------------------------------
B||------------------------------------------------------------------------
G||-----------------------------------------------------------------14-16-1
D||-----------------------------------------------14-16-17-14-16-17--------
A||-----------12-14-15----------14-15-17-14-15-17--------------------------
E||--12-14-15----------14-15-17--------------------------------------------


                                                                           
-----------------------------------------------17-19-20----------19-20-22-|
-----------------------------17-19-20-17-19-20----------19-20-22----------|
-----------16-17-19-16-17-19----------------------------------------------|
--16-17-19----------------------------------------------------------------|
--------------------------------------------------------------------------|
--------------------------------------------------------------------------|


                                                                           
-----------15----------------15-17-19-------------------------------------|
--15-17-19----19-17-15-17-19-------------------15-------------------------|
-----------------------------------------------------------------16-17-19-|
--------------------------------------16-17-19----19-17-16-17-19----------|
--------------------------------------------------------------------------|
--------------------------------------------------------------------------|


                                                                           
--------------------------------------------------------------------------|
--------------------------------------------------------------------------|
-----------14----------------14-16-17-------------------------------------|
--14-16-17----17-16-14-16-17-------------------14----------------14-16-17-|
--------------------------------------14-15-17----17-15-14-15-17----------|
--------------------------------------------------------------------------|


                                                                           
--------------------------------------------------------------------------|
--------------------------------------------------------------------------|
--------------------------------------------------------------------------|
-----------12----------------12-14-15-------------------------------------|
--12-14-15----15-14-12-14-15-------------------12----------------12-14-15-|


Important: The song above is NOT stored on the Chordie server. The original song is hosted at www.guitaretab.com. Chordie works as a search engine and provides on-the-fly formatting. Chordie does not index songs against artists'/composers' will. To remove this song please click here.

This song is displayed as text-only. Transposing and tuning is only available for chordpro-songs.

Login - add to songbook

Rating click stars to rate

Layout
Accuracy

SHARE PAGE  




You need to log in to post comments