Guitar Tabs, Chords and Lyrics


Roads   Various Artists



                          Roads - Roadrunner United

I haven't written it all down as it runs, just what you need to know to play the song. 
quite short and simple (although I had a bit of trouble hearing the chorus under the 
just listen to it to get the timing and order.

Verse:
e|---------------------------------------------------|
B|---3--3--3--3--3--3--3--3--0--0--0--0--0--0--0--0--|
G|---2--2--2--2--2--2--2--2--3--3--3--3--0--0--0--0--|
D|---------------------------------------------------|
A|-2--2--2--2--0--0--0--0----------------------------|
E|-------------------------3--3--3--3--0--0--0--0----|


Chorus:          D       A       G
e||--------7--||-2-------0-------3--|
B||------7----||-3-------2-------0--|
G||*---9-----*||-2-------2-------0--|
D||*---------*||-0-------2-------0--|
A||-----------||-x-------0-------2--|
E||-----------||-x-------x-------3--|
   (Vocals)      (Humming)


Voice of loss is sighing through the rain, but as I turn around, nothing's to be found,
For hours now upon this endless road, but is it taking me, where I long to be -
Alone...

Soaring hope is wheeling through my head, can't remember this, but it must be what I miss,
Suddenly I find I'm standing still, staring at the ground, waiting for your sound -


Important: The song above is NOT stored on the Chordie server. The original song is hosted at www.guitaretab.com. Chordie works as a search engine and provides on-the-fly formatting. Chordie does not index songs against artists'/composers' will. To remove this song please click here.

This song is displayed as text-only. Transposing and tuning is only available for chordpro-songs.

Login - add to songbook

Rating click stars to rate

Layout
Accuracy

SHARE PAGE  




You need to log in to post comments