Guitar Tabs, Chords and Lyrics


Abominable Dr Phibes   Misfits



This song is in dropped D. When i play it, it sounds pretty close,
but you can decide for yourself.

e|------------------------------------------------|
B|------------------------------------------------|
G|------------------------------------------------|x2
D|------------------------------------------------|
A|---------1---------------2----------------------|
D|-1---------------1------------------------------|
             *pick slide on the D string after you play that riff*
e|------------------------------------------------|
B|------------------------------------------------|
G|------------------------------------------------|
D|------------------------------------------------|
A|-4----2------------2/1--------------------------|
D|-----------6\8------------4\6-------------------|

e|------------------------------------------------|
B|------------------------------------------------|
G|------------------------------------------------|x2
D|------------------------------------------------|
A|---------1---------------2----------------------|
D|-1---------------1------------------------------|
             *pick slide on the D string after you play that riff*

e|------------------------------------------------|
B|------------------------------------------------|
G|------------------------------------------------|
D|------------------------------------------------|
A|-4----2------------2/1--------------------------|
D|-----------6\8------------4\6-------------------|

e|------------------------------------------------|
B|------------------------------------------------|
G|------------------------------------------------|
D|------------------------------------------------|
A|------------------------------------------------|


Important: The song above is NOT stored on the Chordie server. The original song is hosted at www.guitaretab.com. Chordie works as a search engine and provides on-the-fly formatting. Chordie does not index songs against artists'/composers' will. To remove this song please click here.

This song is displayed as text-only. Transposing and tuning is only available for chordpro-songs.

Login - add to songbook

Rating click stars to rate

Layout
Accuracy

SHARE PAGE  




You need to log in to post comments