Chordie logo


Thats How I Escaped My Certain Fate   Mission Of Burma



Band: Mission of Burma
Song: That’s how I escaped my Certain Fate
Album: Vs.
Year: 1982

Verse

E|-7-7-7-7-7-7-7-7-7-7-7-7-7-7-7-7-|
B|-7-7-7-7-7-7-7-7-7-7-7-7-7-7-7-7-|
G|-8-8-8-8-8-8-8-8-8-8-8-8-8-8-8-8-|
D|-9-9-9-9-9-9-9-9-9-9-9-9-9-9-9-9-|
A|-9-9-9-9-9-9-9-9-9-9-9-9-9-9-9-9-|
E|-7-7-7-7-7-7-7-7-7-7-7-7-7-7-7-7-|

E|-7-7-7-7-7-7-7-7-5-5-5-5-5-5-5-5-|
B|-7-7-7-7-7-7-7-7-5-5-5-5-5-5-5-5-|
G|-8-8-8-8-8-8-8-8-6-6-6-6-6-6-6-6-|
D|-9-9-9-9-9-9-9-9-7-7-7-7-7-7-7-7-|
A|-9-9-9-9-9-9-9-9-7-7-7-7-7-7-7-7-|
E|-7-7-7-7-7-7-7-7-5-5-5-5-5-5-5-5-|

e|-0-0-0-0-0-0-0-0-0-0-0-0-0-0-0-0-|
B|-0-0-0-0-0-0-0-0-0-0-0-0-0-0-0-0-|
G|-1-1-1-1-1-1-1-1-1-1-1-1-1-1-1-1-|
D|-2-2-2-2-2-2-2-2-2-2-2-2-2-2-2-2-|
A|-2-2-2-2-2-2-2-2-2-2-2-2-2-2-2-2-|
E|-0-0-0-0-0-0-0-0-0-0-0-0-0-0-0-0-|

e|-0-0-0-0-0-0-0-0-0-0-0-0-0-0-0-0-|
B|-0-0-0-0-0-0-0-0-0-0-0-0-0-0-0-0-|
G|-1-1-1-1-1-1-1-1-1-1-1-1-1-1-1-1-|
D|-2-2-2-2-2-2-2-2-2-2-2-2-2-2-2-2-|
A|-2-2-2-2-2-2-2-2-2-2-2-2-2-2-2-2-|
E|-0-0-0-0-0-0-0-0-0-0-0-0-0-0-0-0-|

E|-7-7-7-7-7-7-7-7-7-7-7-7-7-7-7-7-|
B|-7-7-7-7-7-7-7-7-7-7-7-7-7-7-7-7-|
G|-8-8-8-8-8-8-8-8-8-8-8-8-8-8-8-8-|
D|-9-9-9-9-9-9-9-9-9-9-9-9-9-9-9-9-|
A|-9-9-9-9-9-9-9-9-9-9-9-9-9-9-9-9-|
E|-7-7-7-7-7-7-7-7-7-7-7-7-7-7-7-7-|

Bridge

e|-7--5--2--5-0-0-0-0-0-0-0-0-|
B|-7--5--2--5-0-0-0-0-0-0-0-0-|
G|-8--6--3--6-1-1-1-1-1-1-1-1-|
D|-9--7--4--7-2-2-2-2-2-2-2-2-|
A|-9--7--4--7-2-2-2-2-2-2-2-2-|
E|-7--5--2--5-0-0-0-0-0-0-0-0-|

e|-7--5--2--5-2-2-2-2-2-2-2-2-|
B|-7--5--2--5-2-2-2-2-2-2-2-2-|
G|-8--6--3--6-3-3-3-3-3-3-3-3-|
D|-9--7--4--7-4-4-4-4-4-4-4-4-|
A|-9--7--4--7-4-4-4-4-4-4-4-4-|
E|-7--5--2--5-2-2-2-2-2-2-2-2-|

e|-7--5--2--5-3-3-3-3-3-3-3-3-|
B|-7--5--2--5-3-3-3-3-3-3-3-3-|
G|-8--6--3--6-4-4-4-4-4-4-4-4-|
D|-9--7--4--7-5-5-5-5-5-5-5-5-|
A|-9--7--4--7-5-5-5-5-5-5-5-5-|
E|-7--5--2--5-3-3-3-3-3-3-3-3-|

e|-7--5--2--5-7-7-7-7-7-7-7-7-7-7-7-7-7-7-7-7-|
B|-7--5--2--5-7-7-7-7-7-7-7-7-7-7-7-7-7-7-7-7-|
G|-8--6--3--6-8-8-8-8-8-8-8-8-8-8-8-8-8-8-8-8-|
D|-9--7--4--7-9-9-9-9-9-9-9-9-9-9-9-9-9-9-9-9-|
A|-9--7--4--7-9-9-9-9-9-9-9-9-9-9-9-9-9-9-9-9-|
E|-7--5--2--5-7-7-7-7-7-7-7-7-7-7-7-7-7-7-7-7-|

Chorus

e|---------------------------------|
B|-5-5-5-5-5-5-5-5-7-7-7-7-7-7-7-7-|
G|-5-5-5-5-5-5-5-5-7-7-7-7-7-7-7-7-|
D|-5-5-5-5-5-5-5-5-7-7-7-7-7-7-7-7-|
A|-3-3-3-3-3-3-3-3-5-5-5-5-5-5-5-5-|
E|---------------------------------|

e|---------------------------------|
B|-9-9-9-9-9-9-9-9-9-9-9-9-9-9-9-9-|
G|-9-9-9-9-9-9-9-9-9-9-9-9-9-9-9-9-|
D|-9-9-9-9-9-9-9-9-9-9-9-9-9-9-9-9-|
A|-7-7-7-7-7-7-7-7-7-7-7-7-7-7-7-7-|
E|---------------------------------|

e|---------------------------------|
B|-5-5-5-5-5-5-5-5-7-7-7-7-7-7-7-7-|
G|-5-5-5-5-5-5-5-5-7-7-7-7-7-7-7-7-|
D|-5-5-5-5-5-5-5-5-7-7-7-7-7-7-7-7-|
A|-3-3-3-3-3-3-3-3-5-5-5-5-5-5-5-5-|
E|---------------------------------|

e|-----------------7---7---7---7---|
B|-9-9-9-9-9-9-9-9-7---7---7---7---|
G|-9-9-9-9-9-9-9-9-8---8---8---8---|
D|-9-9-9-9-9-9-9-9-9---9---9---9---|
A|-7-7-7-7-7-7-7-7-9---9---9---9---|
E|-----------------7---7---7---7---|

e|-5---5---5---5-0—-0-0-0-0-0----|
B|-5---5---5---5-0—-0-0-0-0-0----|
G|-6---6---6---6-1--1-1-1-1-1----|
D|-7---7---7---7-2—-2-2-2-2-2----|
A|-7---7---7---7-2—-2-2-2-2-2----|
E|-5---5---5---5-0—-0-0-0-0-0----|


Here’s how it all fits together:

(Verse)
This might be your only chance
to prove it on your own.
Tulsa's not that
Tulsa's not that far.

(Verse)
Besides if you stay
I'd feel a certain guilt.
Did I hold you
did I hold you back?

(Bridge)

(Verse)
Can I count on you
If I fall apart?
If I fall a
if I fall apart?

(Chorus)

(Chorus)
That's how I escaped my certain fate.
That's how I escaped my certain fate.
Innocence a novice's mistake.

(Chorus)
That's how I escaped my certain fate.
That's how I escaped my certain fate.
Honesty's an actor's worst mistake.

(Chorus)


Important: The song above is NOT stored on the Chordie server. The original song is hosted at www.guitaretab.com. Chordie works as a search engine and provides on-the-fly formatting. Chordie does not index songs against artists/composers will. To remove this song please click here.

This song is displayed as text-only. Transposing and tuning is only available for chordpro-songs.

Login - add to songbook

Rating click stars to rate

Layout
Accuracy

SHARE PAGE  




You need to log in to post comments