Guitar Tabs, Chords and Lyrics


First Shot Missed Him   Mississippi John Hurt


|-0-------------------0------------------------0---------------------|
|---------3-------1----------------3-------------------3-------------|
|-------------------------------------------------------------[0]----|
|---------2---------------2----------------2---------------2---------|
|-3--------------------------------3---------------3-----------------|
|--------------------------------------------------------------------|








  [F(add9]:       .       .       .        :       .       .       .


                                                                                            


|-------------------------------------------------------------[0]----|
|-1-------------------1------------------------1---------------------|
|---------2-------0------[0]-------2-------0-----------0-------0-----|
|----------------------------------------------------------0---------|
|-------------------------3------------------------3-----------------|
|-1--------------------------------1---------------------------------|








  [G(add9]:       .       .       .        :       .       .       .


                                                                                            


|-------------------------------------------------------------[0]----|
|-0-------------------0------------------------0*--------------------|
|---------2------------------------2-------------------0-------0-----|
|-------------------------0----------------0---------------0-[h2]----|
|--------------------------------------------------------------------|
|-3---------------3----------------3---------------3-----------------|





                                               *sometimes 1





  [C(6]:       .       .       .        :       .       .       .


                                                                                            


|--------------------------------------------------------------------|
|-1-------------------1------------------------1---------------------|
|---------2-------0------[0]-------2-------0---------------0---------|
|--------------------------------------------------------------------|
|-3-----------------------3--------3---------------3-----------------|
|--------------------------------------------------------------------|



Important: The song above is NOT stored on the Chordie server. The original song is hosted at www.guitaretab.com. Chordie works as a search engine and provides on-the-fly formatting. Chordie does not index songs against artists/composers will. To remove this song please click here.

This song is displayed as text-only. Transposing and tuning is only available for chordpro-songs.

Login - add to songbook

Rating click stars to rate

Layout
Accuracy

SHARE PAGE  




You need to log in to post comments