Chordie logo

When Youre Next To Me   Mitch and Mickey



-------------------------------------------------------------------------------
			WHEN YOU'RE NEXT TO ME - Mitch and Mickey
-------------------------------------------------------------------------------
Tabbed by: Jake Denmark
Email: jdenmark@hotmail.com

Tuning: Standard, Capo II fret



This isn't exact, but it's fun to play and sing along with
and it sounds really close playing on one guitar without the autoharp.

Intro:

Most of the intro is based on a C chord.  You hit the bass string first
then strum, bass then strum, etc. like this:

          C-riff          C                   C                  C

e|----0---0---0---0--|----0---0---0---0--|----0---0---0---0--|----0--------|
B|----1---1---1---1--|----1---1---1---1--|----1-1-1---1---1--|----1--------|
G|----0---0---0---0--|----0-2-2-0-0---0--|----0---0-4-0-2-2--|--0-0--------|
D|------3---2---0----|--------------3----|--2----------------|------3-2-0--|
A|--3----------------|--3----------------|-------------------|-------------|
E|-------------------|-------------------|-------------------|-------------|

     G-riff

e|-3-------------|
B|-0-------------|
G|-0----------0--|
D|-0------0h2----|
A|-2--0h2--------|
E|-3-------------|


Verse:

        C-riff                 F       C

e|----0---0---0---0--|   ----1---1----0---0--|
B|----1---1---1---1--|   ----1---1----1---1--|
G|----0---0---0---0--|   ----2---2----0---0--|
D|------3---2---0----|x2 ----3---3----2---2--|x2
A|--3----------------|   ----3---3--3---3----|
E|-------------------|   --1---1-------------|

When I'm standing.....    There's a song to sing...


      G-riff

e|-3-------------|
B|-0-------------|
G|-0----------0--|
D|-0------0h2----|
A|-2--0h2--------|
E|-3-------------|

..feeling right

You'll need to play the C-riff twice between every other verse.  That is,
when the verse ends in "When you're next to me," play C-riff twice and then
go into the next verse.


Chorus:

            F                  Am

e|----1---1---1---1--|----0---0---0---0--|
B|----1---1---1---2--|----1---1---1---1--|
G|----2---2---2---2--|----2---2---2---2--|
D|----3---3---3---3--|----2---2---2---2--|
A|----3---3---3---3--|--0---0---0---0----|
E|--1---1---1---1----|-------------------|

This love for you....  Has a power that is...

        G#                 C               G-riff

e|----4---4---4---4--|----0---0----------|--3-------------|
B|----4---4---4---4--|----1---1----------|--0-------------|
G|----5---5---5---5--|----0---0----------|--0----------0--|
D|----6---6---6---6--|----2---2----------|--0------0h2----|
A|----6---6---6---6--|--3-------3--------|--2--0h2--------|
E|--4---4---4---4----|------3------------|--3-------------|

It can mend the....   With glor-o-o-rious light


Outro:

          C                  C

e|----0---0---0---0--|-----------------|
B|----1---1---1---1--|--------------1--|
G|----0---0---0---0--|----------0h2----|
D|------3---2---0----|------0h2--------|
A|--3----------------|--3--------------|
E|-------------------|-----------------|

..to me

------------Lryics----------------

Intro

Verse:

When I'm standing next to you
There's a song to sing
I know everything's feeling right

When I'm standing next to you
Steeple bells ring
Only good things /
Do I see
When you're next to me

When I hold your hand in mine
Different world wakes
A new morning breaks with the sun

When I hold your hand in mine
Children's dreams take flight
Through a star lit night

That's what I see
When you're next to me

Chorus:

This love for you I'm feeling
Has a power that is healing
It can mend the darkest hour
With glorious light

Verse:

When I taste your lips so sweet
I see beggars dine
And the sands of time up and stop

When I taste your lips so sweet
Black and white bend
Every dove lands at your feet /
When you're next to me

(Instrumental)

Chorus:

This love for you I'm feeling
Has a power that is healing
It can mend the darkest hour
With glorious light

Verse:

When I'm lying next to you
I feel moonbeams burn
I see rainbows turning to gold

When I'm lying next to you
I hear Angels play
I see sweeter days
I see rivers wind
Through the end of time

I see hatred fall
From the highest hill
I see God's good grace
Shining in your eyes*
That's what I see
When you're next to me

Outro


*Note:  With the "Shining i-i----i-in your eyes" part keep playing the F
until "eyes" when you go to the C, then finsh up the the G riff.

| /  slide up
| \  slide down
| h  hammer-on
| p  pull-off
| ~  vibrato
| +  harmonic
| x  Mute note


Important: The song above is NOT stored on the Chordie server. The original song is hosted at www.guitaretab.com. Chordie works as a search engine and provides on-the-fly formatting. Chordie does not index songs against artists/composers will. To remove this song please click here.

This song is displayed as text-only. Transposing and tuning is only available for chordpro-songs.

Login - add to songbook

Rating click stars to rate

Layout
Accuracy

SHARE PAGE  



You need to log in to post comments