Guitar Tabs, Chords and Lyrics


Quemandome De Amor   Moderatto



e|----------------------------------7^-7^----------------------------------|
B|-------------8^--------------------------10-8--------------------8^------|
G|--9-9--7---------9---9-9-9--7------------------9-7-9--7---------------9--|
D|----------9-------------------9--------------------------9---------------|
A|-------------------------------------------------------------------------|
E|-------------------------------------------------------------------------|

e|-7-10^-7-10^--7----------------------------------------|
B|----------------10-8-----------------------------------|
G|-----------------------------7-9-7------7-9-7----------|
D|------------------------7-9--------9-7--------9-7------|
A|-------------------------------------------------------|
E|-------------------------------------------------------|
                       

e|---------10-12-10--------10-12-10---------------10-10-10-|
B|--10-12-----------12-10-----------12-10---------12-12-12-|
G|---------------------------------------------------------|
D|---------------------------------------------------------|
A|---------------------------------------------------------|
E|---------------------------------------------------------|
  

e|-10/12-12-12---12/14-14-14---19^-19^---------------------|
B|-12/14-14-14---14/16-16-16-------------------------------|
G|---------------------------------------------------------|
D|---------------------------------------------------------|
A|---------------------------------------------------------|
E|---------------------------------------------------------|

Adolfo M. 


Important: The song above is NOT stored on the Chordie server. The original song is hosted at www.guitaretab.com. Chordie works as a search engine and provides on-the-fly formatting. Chordie does not index songs against artists'/composers' will. To remove this song please click here.

This song is displayed as text-only. Transposing and tuning is only available for chordpro-songs.

Login - add to songbook

Rating click stars to rate

Layout
Accuracy

SHARE PAGE  




You need to log in to post comments