Chordie logo

From Point A To Point B  Modest Mouse

-----------------------------------------------------------------



-----------------------------------------------------------------










e|------------------|-----------|-----------|


B|---------(0)------|-----------|-----------|


G|----------4-------|-----------|-----------|


D|-0--------5----5--|-2---3-5---|-3-2-3-2-0-|


A|-3--------3----5--|-0---0-0-0-|-0-0-0-0-0-|


E|-5-------------3--|-----------|-----------|






e|(0)--------5-5-5-7-5-5-5--|-5-5-5-7p5-5---7p5-5---|


B|-0---------7-7-7-7-7-8-7--|-7-7-7-7---8p7-7---8p7-|


G|-0---------7-7-7-7-7-7-7--|-7-7-7-7---7---7---7---|


D|-2------------------------|-----------------------|


A|-3-0----------------------|-----------------------|


E|-----3-0------------------|-----------------------|






















[F]only you know you know [A#]how

that broke

[F]only you know [A#]how

[F]only you know [A#]how


that broke

[F]only time uh [A#]oh

[F]I've been working on the railroad time uh [A#]oh

[F]A#[-]- [133211]x13331

----------------------------------------------


Yeah the end is kind of off rhythm and stuff but
just play the two chords and you'll basically get it

Important: The song above is NOT stored on the Chordie server. The original song is hosted at www.guitaretab.com. Chordie works as a search engine and provides on-the-fly formatting. Chordie does not index songs against artists/composers will. To remove this song please click here.

A# F
variations - click chord images

Login - add to songbook

Transpose chords

Tuning

Rating click stars to rate

Layout
Accuracy

SHARE PAGE  

You need to log in to post comments