Guitar Tabs, Chords and Lyrics


Breakthrough   Modest Mouse



----------------------------------------------------------------------------
		         BREAKTHROUGH - Modest Mouse
----------------------------------------------------------------------------
Tabbed by Evan Kindley

The chord progression for the entire song is C G F D#

Solo:
E -----------------|
B -----------------|
G ---------3-1-0---|
D ----1-1----------|   x2
A ---3-3-----------|
E -----------------|

E ------------------|
B ------------------|
G ---0-1-0----------|
D ------------------|  x4
A ------------------|
E ------------------|

E -------------------------|
B -------------------------|
G--------------------------|
D ---3-1-0-3-1-0-3-1-------|
A -------------------------|
E -------------------------|

E -----------------------------------------------|
B -----------------------------------------------|
G ---3-5-3-5-3-5-8---3-5-3-5-1-3-1-3-------------|
D -----------------------------------------------|
A -----------------------------------------------|
E -----------------------------------------------|

E ----------------------------------------------|
B ----------------------------------------------|
G ---3-5-3-5-3-5-8---3-5-3-5--------------------|
D ------------------------------------3---3-----|
A -------------------------------------3-3-3----|


Important: The song above is NOT stored on the Chordie server. The original song is hosted at www.guitaretab.com. Chordie works as a search engine and provides on-the-fly formatting. Chordie does not index songs against artists'/composers' will. To remove this song please click here.

This song is displayed as text-only. Transposing and tuning is only available for chordpro-songs.

Login - add to songbook

Rating click stars to rate

Layout
Accuracy

SHARE PAGE  




You need to log in to post comments