Guitar Tabs, Chords and Lyrics


Bankrupt On Selling   Modest Mouse



Tabbed by: facebandit
Tuning: Standard (EADGBe)

CHORDS: C                           Am

e|------0-0-0-0-0-0-0-0-0-0-0-0-0---0-0-0-0-0-0-0-0-0-0-0-0-0---------|
B|------1-1-1-1-1-1-3-1-1-1-0-1-0---1-1-1-1-1-1-3-1-1-1-0-1-0---------|
G|------0-0-0-0-0-0-0-0-0-0-0-0-0---2-2-2-2-2-2-2-2-2-2-2-2-2---------|
D|------2-2-2-2-2-2-2-2-2-2-2-2-2---2-2-2-2-2-2-2-2-2-2-2-2-2---------|
A|------3-3-3-3-3-3-3-3-3-3-3-3-3---0-0-0-0-0-0-0-0-0-0-0-0-0---------|
E|--------------------------------------------------------------------|

       Em                         Fmaj7
e|-----0-0-0-0-0-0-0-0-0-------------0-0-0-0-0-0-0-0-0-0-0-0-0-------|
B|-----0-0-0-0-0-0-3-3-3-------------1-1-1-1-1-1-1-1-1-1-1-1-1-------|
G|-----0-0-0-0-0-0-0-0-0-------------2-2-2-2-2-2-2-2-2-2-2-2-2---*---|
D|-----2-2-2-2-2-2-2-2-2-------------3-3-3-3-3-3-3-3-3-3-3-3-3---*---|
A|-----2-2-2-2-2-2-2-2-2---------------------------------------------|
E|-----0-0-0-0-0-0-0-0-0---------------------------------------------|
                       (riff 1^)


Riff 1

e|---3--1--0----|
B|------------1-|
G|--------------|
D|--------------|
A|--------------|
E|--------------|



Important: The song above is NOT stored on the Chordie server. The original song is hosted at www.guitaretab.com. Chordie works as a search engine and provides on-the-fly formatting. Chordie does not index songs against artists'/composers' will. To remove this song please click here.

This song is displayed as text-only. Transposing and tuning is only available for chordpro-songs.

Login - add to songbook

Rating click stars to rate

Layout
Accuracy

SHARE PAGE  




You need to log in to post comments