Guitar Tabs, Chords and Lyrics


Truckers Atlas   Modest Mouse



Verse

e---------|----------------------------------------------------|
B---------|------------------------------------4---------------|
G---------|-----------4----------------------------------------|
D---------|----------------------------------------------------|
A---------|--------------------------4--4-----------4/7--------|
E----12\0—|---4--4------4-0-0-0--------------------------------|

(1st time only)

Pre-Chorus

listen to teh struming patterns in teh song ya can figure it out pretty easy
e|---------------|
B|---------------|
G|--9----6----4--|
D|--x----x----x--|
A|--7----4----2--|
E|---------------|

Chorus
e----2-------------2---------------0-----0-------0--------0-------|
B------4------4------4------4--------4------4-------x---------4---|
G---------4--------------4----------------------------------------|
D-----------------------------------------------------------------|
A-----------------------------------------------------------------|
E-----------------------------------------------------------------|

2nd chorus
e--2p0-------2p0-------2p0------2p0-------2p0----------------------------|
B--------4-------------------4---------------------4-------2---4--2------|
G------------------4------------------4-----------------4-------------4--|
D------------------------------------------------------------------------|
A------------------------------------------------------------------------|
E------------------------------------------------------------------------|


outro
e---------------------------------------------------|
b---------------------------------------------------|
g---------------------------------------------------|
d---------------------------------------------------|
a-----------------------0p2^2^----------------------|


Important: The song above is NOT stored on the Chordie server. The original song is hosted at www.guitaretab.com. Chordie works as a search engine and provides on-the-fly formatting. Chordie does not index songs against artists'/composers' will. To remove this song please click here.

This song is displayed as text-only. Transposing and tuning is only available for chordpro-songs.

Login - add to songbook

Rating click stars to rate

Layout
Accuracy

SHARE PAGE  




You need to log in to post comments