Guitar Tabs, Chords and Lyrics


Missed The Boat   Modest Mouse



ok, first tab ever, might not be correct but i've had a crack...

intro
e|-2h3p2-----2h3p2-----2h3p2-----2--------------------------------------|
B|-------3-3-------3-3-------3-3--------2h3p2-----2h3p2-----2h3p2-----3-| 
G|--------------------------------------------4-4-------4-4-------4-4---|  
D|----------------------------------------------------------------------|
A|----------------------------------------------------------------------|
E|----------------------------------------------------------------------|


e|-2h3p2-----2h3p2-----2h3p2-----2--------------------------7-7-7-7-7-9--|
B|-------3-3-------3-3-------3-3-------2h3p2-----2h3p2------8-8-8-8-8-10-|
G|-------------------------------------------4-4-------4-4--7-7-7-7-7-9--|
D|-----------------------------------------------------------------------|
A|-----------------------------------------------------------------------|
E|-----------------------------------------------------------------------|

verse - repeated
e|-2h3p2-----2h3p2-----2h3p2-----2--------------------------------------|
B|-------3-3-------3-3-------3-3--------2h3p2-----2h3p2-----2h3p2-----3-| 
G|--------------------------------------------4-4-------4-4-------4-4---|  
D|----------------------------------------------------------------------|
A|----------------------------------------------------------------------|
E|----------------------------------------------------------------------|

chorus - (oh & we carried it all so well...) 
E|--2-2-2---2--/9--9--9---9----7-7-7--7---7-7-7--7------------------|
B|--3-3-3---3--/10-10-10—10----8-8-8—-8---8-8-8--8------------------| 
G|--2-2-2---2--/9--9--9---9----7-7-7--7---7-7-7--7------------------|
D|--0-0-0---0-------------------------------------------------------|
A|------------------------------------------------------------------|
E|------------------------------------------------------------------|

E|--2-2-2---2--/9--9--9---9----7-7-7--9--9--10-10--7-7-7-9--9--10-10-|
B|--3-3-3---3--/10-10-10—-10---8-8-8—-10-10-10-10--8-8-8-10-10-10-10-| 
G|--2-2-2---2--/9--9--9---9----7-7-7--9--9--9--9---7-7-7-9--9--9--9--|
D|--0-0-0---0--------------------------------------------------------|
A|-------------------------------------------------------------------|
E|-------------------------------------------------------------------|

feel free to rate well!


Important: The song above is NOT stored on the Chordie server. The original song is hosted at www.guitaretab.com. Chordie works as a search engine and provides on-the-fly formatting. Chordie does not index songs against artists'/composers' will. To remove this song please click here.

This song is displayed as text-only. Transposing and tuning is only available for chordpro-songs.

Login - add to songbook

Rating click stars to rate

Layout
Accuracy

SHARE PAGE  




You need to log in to post comments