Guitar Tabs, Chords and Lyrics


Pagkakamali  Mojofly



        [DM7]                                                                               
e|--------------3----------------3------------|
B|--------3-----------3------3-----3----------|
G|-----3-----3----3------3------------3-------|
D|-0------------------------------------------|
A|--------------------------------------------|
E|--------------------------------------------|

        [AM7]                                                                               
e|--------------0------------------0-------------|
B|--------2------------2-------2----------2------|
G|-----------------1-------1----------1-------1--|
D|-----2-----2-----------------------------------|
A|--0--------------------------------------------|
E|-----------------------------------------------|

VERSE 1
[DM7]Kanina ko[AM7] pa
[DM7]pinagmamasdan ang na[AM7]karaan
[DM7]Wala ako[AM7]ng lakas
[DM7]sabihin dahil pa[AM7]god na akong
[DM7]magisip sa kas[AM7]alanang nagawa ko [DM7]      [AM7]

CHORUS:
[Bm]Di mo m[E]an maintindi[A]han
[A]Alam kong nagkamali ako
[Bm]Ba't di ko ma[E]amin ang tot[A]oo
A Bm Epause
Ikaw ang pinakamagandang pagakakmali ko

INTRO(2X)

VERSE 2
[DM7]Pagbalik [AM7]mo
[DM7]Sasabihin ko pa [AM7]rin sayo
[DM7]Na nag-iis[AM7]a ka pa [DM7]rin
[AM7]sa buhay kong it[DM7]o     [AM7]       w[DM7]ooooh   o[AM7]oh


CHORUS:
[Bm]Di mo m[E]an maintindi[A]han
[A]Alam kong nagkamali ako
[Bm]Ba't di ko ma[E]amin ang tot[A]oo
[A]Ikaw ang pinakam[Bm]agandan[E]g pagakakmali ko

Interlude:
G-A 2X

VERSE 3
[DM7]Ganito lan[AM7]g ako
[DM7]Habang buhay [AM7]mag-isa
[DM7]Pinaghanda[AM7]an ko na  [DM7]
[AM7]Dating dati pa [DM7]      [AM7]


CHORUS:(Not that heavy riff)
[Bm]Di mo m[E]an maintindi[A]han
[A]Alam kong nagkamali ako
[Bm]Ba't di ko ma[E]amin ang tot[A]oo
[A]Ikaw ang pinakam[Bm]agandan[E]g pagakakmali ko

OUTRO:

[G---A]                                     
[G]Pagkakam[A]ali ko
[G]Pagkakam[A]ali ko
[G]Pagkakam[A]ali ko

end on G


comments email me at mister_stubborn72@yahoo.com rock on!

Important: The song above is NOT stored on the Chordie server. The original song is hosted at www.guitaretab.com. Chordie works as a search engine and provides on-the-fly formatting. Chordie does not index songs against artists'/composers' will. To remove this song please click here.

Text color:
Chord color:
Chord grids: 
Font size:    
Page size: 

A Am7 Bm Dm7 E G
variations - click chord images

Login - add to songbook

Transpose chords

Tuning

Rating click stars to rate

Layout
Accuracy

SHARE PAGE  




You need to log in to post comments