Guitar Tabs, Chords and Lyrics


Natt And Dag  Molo

-------------------------------------------------------------------------------



-------------------------------------------------------------------------------

e|------------------------------------10-12----10-12-----------|
B|----10-p11-------10-p11-------10-10-------10-------10--10-10-|
G|-----------12-10--------12-10--------------------------------|
D|-------------------------------------------------------------|
A|-------------------------------------------------------------|
E|-------------------------------------------------------------| x2
[F5] Eg såg,[D5] ikke di[C5]t, eg vista [Bb5]ka eg no sku gjør.
[F5] Såg ut,[D5] såg alle [C5]andre, at det [Bb5]no snart mått bi [A5]slutt.
"Alt førr [Bb5]feig" Du ska [A5]se, ka eg gj[Bb5]ør når du sei:
[D5] At du ikke [Bb5]stolt, aldri [A5]gjort, at du og [G5]eg va natt & dag.
[D5] Alt vi fikk [Bb5]gjort, va kunn for[A5]di ingen [G5]av oss tort
[F5]...[D5].Du[C5] sk[Bb5]a se, du ska se..... x2
[F5] Vi såg,[D5] kvær vår[C5] vei. Vi prøvd å[Bb5] kjæmp oss samme vei,
[F5] men no,[D5] no e ting [C5]gjort, ting som [Bb5]aldri sku gå [A5]fort.
"Alt førr [Bb5]feig" Du ska [A5]se, ka eg gj[Bb5]ør når du sei:
[D5] At du ikke [Bb5]stolt, aldri [A5]gjort, at du og [G5]eg va natt & dag.
[D5] Alt vi fikk [Bb5]gjort, va kunn for[A5]di ingen [G5]av oss tort
The chords D5 Bb5 A5 G5 are being played twice (x2) during this:
e|----10-12----10-12-------12-10-|
B|----------10-------10-10-------|
G|-------------------------------|
D|-------------------------------|
A|-------------------------------|
E|-------------------------------| x4



[D5] At du ikke [Bb5]stolt, aldri [A5]gjort, at du og [G5]eg va natt & dag.
[D5] Alt vi fikk [Bb5]gjort, va kunn for[A5]di ingen [G5]av oss tort
The chords D5 Bb5 A5 G5 are being played during this:
e|------------------------------------10-12----10-12-----------|
B|----10-p11-------10-p11-------10-10-------10-------10--10-10-|
G|-----------12-10--------12-10--------------------------------|
D|-------------------------------------------------------------|
A|-------------------------------------------------------------|
E|-------------------------------------------------------------| x2



Outro:
      [D5]                   [D5]                                                         
e|---------10----12-----------|
B|---10-10----10----10--10-10-|
G|----------------------------|
D|----------------------------|
A|----------------------------|
E|----------------------------|



| / slide up
| \ slide down
| h hammer-on
| p pull-off
| ~ vibrato
| + harmonic
| x Mute note


Listen to the song, and play along!

===============================================================================

Important: The song above is NOT stored on the Chordie server. The original song is hosted at www.guitaretab.com. Chordie works as a search engine and provides on-the-fly formatting. Chordie does not index songs against artists'/composers' will. To remove this song please click here.

Text color:
Chord color:
Chord grids: 
Font size:    
Page size: 

A5 Bb5 C5 D5 F5 G5
variations - click chord images

Login - add to songbook

Transpose chords

Tuning

Rating click stars to rate

Layout
Accuracy

SHARE PAGE  




You need to log in to post comments