Guitar Tabs, Chords and Lyrics


Stratus   Moments In Grace



i saw these guys open for further seems forever, and i thought they were the best band
i'd ever seen/heard live.    ...they're great!

this is the way i think it's played:

Dropped-D tuning

intro:
E]------------------------------------------[
B]-1-1-1-3-3-3-1-1-1-4-4-4-------3-3-3------[
G]-------------------------3-3-3------------[
D]------------------------------------------[   4x 
A]------------------------------------------[
D]------------------------------------------[

verse(s):
E]------------------------------------------
B]------------------------------------------
G]--5--5--5--5--X-X-X-X---8--8-8-8-8--8-8-8-
D]--X--X--X--X--X-X-X-X---8--8-8-8-8--8-8-8- C
A]--3--3--3--3--X-X-X-X---6--6-6-6-6--6-6-8-  O
D]------------------------6--6-6-6-6--6-6-6-   NTINUED
                    

Important: The song above is NOT stored on the Chordie server. The original song is hosted at www.guitaretab.com. Chordie works as a search engine and provides on-the-fly formatting. Chordie does not index songs against artists/composers will. To remove this song please click here.

This song is displayed as text-only. Transposing and tuning is only available for chordpro-songs.

Login - add to songbook

Rating click stars to rate

Layout
Accuracy

SHARE PAGE  




You need to log in to post comments