Chordie logo


Infatuation   Moms Cake



Infatuation
Mom's Cake

Intro: DM7          C#m7            Bm7             E-Esus-E
e|----------5---------------7-4-------------5-2------------|
B|------------7---------5-------5-------3-------3----------|
G|------6-------6---------4-------4-------2-------2-1-2-1--|
D|----7---7-------7---6---------------4-------------2-2-2--|
A|--5---------------4---------------2---------------2-2-2--|
E|--------------------------------------------------0-0-0--|

Verse 1: DM7 C#m7 BM7 E
Hithit-buga sa yosi
Nag-iisip ka ng kung anu-ano
Walang kwentang mga bagay
Ang pumapasok sa isip mo

Refrain:
Tulala ka lagi at natataranta
Kung saan ka pupunta

Chorus: DM7 C#m (2x) Bm E
Pigilan mo ang nararamdaman
Ng 'yong puso at iyong isipan
Nararamdaman mo'y 
Infatuation lang, wooh.. Yeah..

Verse 2:
'Wag mong isipin
Na 'di kita mahal
Kung alam mo lang
Ayaw kitang masaktan

Refrain

Chorus

Adlib: (do intro)
e|------------------------------------------|
B|--5-7-/10-9-10-9-7-5-3-5-5-3-3-2-2-0-2-3--|
G|------------------------------------------|
D|------------------------------------------|
A|------------------------------------------|
E|------------------------------------------|

e|--9-7-5-5-7-7/9---5-7-7^-9--9-9-9/10-9-7-5-5--|
B|----------------7-----------------------------|
G|----------------------------------------------|
D|----------------------------------------------|
A|----------------------------------------------|
E|----------------------------------------------|

Refrain

Chorus (2x)

			Dm-- A-
...Infatuation lang

tabbed by: Antonin Deala
email: antonindeala@yahoo.com



Important: The song above is NOT stored on the Chordie server. The original song is hosted at www.guitaretab.com. Chordie works as a search engine and provides on-the-fly formatting. Chordie does not index songs against artists/composers will. To remove this song please click here.

This song is displayed as text-only. Transposing and tuning is only available for chordpro-songs.

Login - add to songbook

Rating click stars to rate

Layout
Accuracy

SHARE PAGE  




You need to log in to post comments