Chordie logo

Anata Ni   Mongol 800



----------------------------------------------------------------------------
			     Anata Ni - Mongol 800
----------------------------------------------------------------------------
Tabbed by: Michael "Rudel" Carter II
Email: fa18resource@yahoo.com

Tuning: Standard

e|-----------------------|
B|-----------------------|
G|--------7----9----5----|
D|---5----7----9----5----|
A|---5----5----7----3----|
E|---3-------------------|
                         
e|----------------------------|
B|-----------------------BEND-|
G|--------7----9----5----7----|
D|---5----7----9----5----7----|
A|---5----5----7----3----5----|
E|---3------------------------|

e|-----------------------|
B|-----------------------|
G|--------7----9----5----|
D|---5----7----9----5----|  x2
A|---5----5----7----3----|
E|---3-------------------|

     xxxxxxxxxxxxxxxxx P.M. xxxxxxxxxxxxxxxxxx
e|------------------------------------------------|
B|------------------------------------------------|
G|---5----4---------7----5----4----9----7----5----|
D|---5----4----7----7----5----4----9----7----5----|
A|---3----2----7----5----3----2----7----5----3----|
E|-------------5----------------------------------|

_____________________________________________________________________________


e|-------------------------------------|
B|-------------------------------------|
G|-----------4xxxxx--5xxxxx--7xxxxx----|
D|---5xxxxx--4xxxxx--5xxxxx--7xxxxx----| x3
A|---5xxxxx--2xxxxx--3xxxxx--5xxxxx----|
E|---3xxxxx----------------------------| 
                              
e|-----------------------------------------|
B|-----------------------------------------|
G|-----------4xxxxx----5----4--------------|
D|---5xxxxx- 4xxxxx----5----4----7----5----|
A|---5xxxxx--2xxxxx----3----2----7----3----|
E|---3xxxxx----------------------5----3----|

_____________________________________________________________________________


e|--------------------------------------------------|
B|--------------------------------------------------|
G|---5----7----------------5xxx-----------7---------|
D|---5----7----5-----------5xxx---5xxx--- 7----5----|    x2
A|---3----5----5-----------3xxx---5xxx----5----5----|
E|-------------3------------------3xxx---------3----|

e|------------------------------------------------------|
B|-------------------------------------------------BEND-|
G|---5---------7---------5------------------5xxxxxx5----|
D|---5----5----7----5----5----5----7xxxxxxxx3xxxxxx5----|
A|---3----5----5----5----3----5----7xxxxxxxx3xxxxxx3----|
E|--------3---------3---------3----5xxxxxxxx------------|
           
e|---------------------------------|
B|---------------------------------|
G|--------7----9----5---------7----|
D|---5----7----9----5----5----7----| x2
A|---5----5----7----3----5----5----|
E|---3-------------------3---------|

_____________________________________________________________________________      
                                  
e|-----------------------------|
B|-----------------------------|
G|---5xxxxx--7xxxxx------------|
D|---5xxxxx--7xxxxx--5xxxxx----|
A|---3xxxxx--5xxxxx--5xxxxx----|

e|---------------------------------|
B|---------------------------------|
G|--9xxxxx--5xxxxx--7xxxxx---------|
D|--9xxxxx--5xxxxx--7xxxxx--5xxxxx-|  x2
A|--7xxxxx--3xxxxx--5xxxxx--5xxxxx-|
E|--------------------------3xxxxx-|

e|------------------------|
B|------------------------|
G|---9xxxxx--5xxxxx--7----|
D|---9xxxxx--5xxxxx--7----|
A|---7xxxxx--3xxxxx--5----|
E|------------------------|

e|---------------------------------|
B|---------------------------------|
G|--------7----9----5---------7----|
D|---5----7----9----5----5----7----| x2
A|---5----5----7----3----5----5----|
E|---3-------------------3---------|

e|-----------------------------|
B|-----------------------------|
G|---5xxxxx--7xxxxx------------|

D|---5xxxxx--7xxxxx--5xxxxx----|
A|---3xxxxx--5xxxxx--5xxxxx----|

e|---------------------------------|
B|---------------------------------|
G|--9xxxxx--5xxxxx--7xxxxx---------|
D|--9xxxxx--5xxxxx--7xxxxx--5xxxxx-|  x2
A|--7xxxxx--3xxxxx--5xxxxx--5xxxxx-|
E|--------------------------3xxxxx-|

e|------------------------|
B|------------------------|
G|---9xxxxx--5xxxxx--7----|
D|---9xxxxx--5xxxxx--7----|
A|---7xxxxx--3xxxxx--5----|
E|------------------------|

e|-----------------------|
B|-----------------------|
G|--------7----9----5----|
D|---5----7----9----5----| x3
A|---5----5----7----3----|
E|---3-------------------|

     xxxxxxxxxxxxxxxxx P.M. xxxxxxxxxxxxxxxxxx
e|------------------------------------------------|
B|------------------------------------------------|
G|---5----4---------7----5----4----9----7----5----|
D|---5----4----7----7----5----4----9----7----5----|
A|---3----2----7----5----3----2----7----5----3----|
E|-------------5----------------------------------|






| /  slide up
| \  slide down
| h  hammer-on
| p  pull-off
| ~  vibrato
| +  harmonic
| x  Mute note


Important: The song above is NOT stored on the Chordie server. The original song is hosted at www.guitaretab.com. Chordie works as a search engine and provides on-the-fly formatting. Chordie does not index songs against artists/composers will. To remove this song please click here.

This song is displayed as text-only. Transposing and tuning is only available for chordpro-songs.

Login - add to songbook

Rating click stars to rate

Layout
Accuracy

SHARE PAGE  

You need to log in to post comments