Guitar Tabs, Chords and Lyrics


Daisy Chain  Monique Brumby

[D]                [Bm]              [F#m]              [G]                    
e:|-----------------------------------------------------|
b:|-----------------------------------------------------|
g:|2---2---2-----2---2---2-------2---2---2----2---2---2-|
d:|--0---0---0-----0---0---0---4---4---4----5---5---5---|
a:|-----------------------------------------------------|
e:|-----------------------------------------------------|

   [D]             [A]              [G]           [A]                       
e:|-----------------------------------------------------|
b:|-----------------------------------------------------|
g:|2---2---2----2---2---2-------2---2---2---2---0-------|
d:|--0---0---0----0---0---0---5---5---5-----------4---2-|
a:|---------------------------------------0---0---------|
e:|-----------------------------------------------------|



[D]This is the [Bm]story that he to[F#m]ld          [G]
Of  [D]once he was [A]young and now he's [G]old    [A]
[D]There were some f[Bm]riends he made
As [F#m]part of the d[G]aisy chain
And [D]he did the [A]things he thought were [G]right         [A]
And we don't [D]know what's wrong with [Bm]them
And they don't [F#m]know what's wrong with [G]us
Cause we don;t k[D]now if there is  [A]any one [G]right  [A]
Doesn't anybody k[D]now why they do all the t[Bm]hings they do
Why don't we [F#m]know why they say all the t[G]hings they say
why don't you [D]know, cause you're just not [A]them
And they're just not y[G]ou        [A]
There was a woman that he loved
But some of his friends did not approve
He had a god above
And wanted a world of love
And he did the things that he thought were right

Important: The song above is NOT stored on the Chordie server. The original song is hosted at www.guitaretab.com. Chordie works as a search engine and provides on-the-fly formatting. Chordie does not index songs against artists'/composers' will. To remove this song please click here.

Text color:
Chord color:
Chord grids: 
Font size:    
Page size: 

A Bm D F#m G
variations - click chord images

Login - add to songbook

Transpose chords

Tuning

Rating click stars to rate

Layout
Accuracy

SHARE PAGE  




You need to log in to post comments