Wonderful Angel

Monk and Neagle

 GADB(m
e-X-X-X-X-X-X-X-X-X--X--X-X-X--X--X-X-10-10-X-X-10-10-X-X-X--X--X-X-X--X--X-X
B-8-8-X-X-8-8-X-X-10-10-X-X-10-10-X-X-10-10-X-X-10-10-X-X-12-12-X-X-12-12-X-X
G-7-7-X-X-7-7-X-X-9--9--X-X-9--9--X-X-7--7--X-X-7--7--X-X-11-11-X-X-11-11-X-X
D-5-5-X-X-5-5-X-X-7--7--X-X-7--7--X-X-7--7--X-X-7--7--X-X-9--9--X-X-9--9--X-X
A----------------------------------------------------------------------------
E----------------------------------------------------------------------------


For the verse use the chords above and for the chorus use the same and if you have
another guitar player, have them play open chords.

The best way to get the rhythm is just listen to the song.

Verse:
 GADBm
 You take my breath away     
 GAD
 You set my heart on fire
 BmG
When you look at me like that
 ADBm
All I feel inside  
 GAD
 Is something that I never want to hide

Chorus:
 DBm
Wonderful Angel    
 AG
 Do you see what I see
 DBm
When I hold you  
 AG
 Do you feel what I feel
 D
Something magical
 BmAG
 The way your heart is joined with mine
 DBm
How I love you  
 AG
And I always will

Verse 2:
 GADBm
 You've got the best of me   
 GA
 Theres just no doubt
 DBmG
That I am a better man with you
 ADBm
All I feel inside  
 GAD
Is something that I never want to hide

Chorus:
 DBm
Wonderful Angel    
 AG
 Do you see what I see
 DBm
When I hold you  
 AG
 Do you feel what I feel
 D
Something magical
 BmAG
 The way your heart is joined with mine
 DBm
How I love you  
 AG
And I always will

Break:

Intro with some "oooooohs"
 GADB(m
e-X-X-X-X-X-X-X-X-X--X--X-X-X--X--X-X-10-10-X-X-10-10-X-X-X--X--X-X-X--X--X-X
B-8-8-X-X-8-8-X-X-10-10-X-X-10-10-X-X-10-10-X-X-10-10-X-X-12-12-X-X-12-12-X-X
G-7-7-X-X-7-7-X-X-9--9--X-X-9--9--X-X-7--7--X-X-7--7--X-X-11-11-X-X-11-11-X-X
D-5-5-X-X-5-5-X-X-7--7--X-X-7--7--X-X-7--7--X-X-7--7--X-X-9--9--X-X-9--9--X-X
A----------------------------------------------------------------------------
E----------------------------------------------------------------------------


Chorus:
 DBm
Wonderful Angel    
 AG
 Do you see what I see
 DBm
When I hold you  
 AG
 Do you feel what I feel
 D
Something magical
 BmAG
 The way your heart is joined with mine
 DBm
How I love you  
 AG
And I always will
 G
 And I always will
 DBmAGD


A Bm D G
variations - click chord images
Transpose chords:
Tuning:
Cool service:
View: Size:
A  A  A
Rating:
Layout:
  • Currently 2.4/5 Stars.
  • 1
  • 2
  • 3
  • 4
  • 5
 
Accuracy:
  • Currently 3.8/5 Stars.
  • 1
  • 2
  • 3
  • 4
  • 5
 
click stars to rate
Chordie recommends:
Learn to play this song & others via video guitar lessons at JamPlay.com
Songbook:
Login to add this song to your songbook
Support the artist
Preview/buy this song
MSN Music
Why this non-profit ad?

 
login to add comments/video/corrections