Corrected by jytim. View original
variations - click chord images
Transpose chords:
Tuning:
Cool service:
View: Size:
A  A  A
Rating:
Layout:
  • Currently 2.9/5 Stars.
  • 1
  • 2
  • 3
  • 4
  • 5
 
Accuracy:
  • Currently 2.9/5 Stars.
  • 1
  • 2
  • 3
  • 4
  • 5
 
click stars to rate
Chordie recommends:
Check out JamPlay.com for online video guitar lessons
Songbook:
Login to add this song to your songbook
Support the artist
Preview/buy this song
MSN Music
Why this non-profit ad?

 
login to add comments/video/corrections

schmancy (report comment to admin):
Intro:


--------8-------10-------12-10-8-----
--8-6-8---8-6-8----8-6-8---------8-6-
-------------------------------------
-------------------------------------
-------------------------------------
-------------------------------------

Outro:

-------------------------------------
----8-8/15-----8-8/15----------------
--7----------7-----------------------
-------------------------------------
-------------------------------------
-------------------------------------