Guitar Tabs, Chords and Lyrics


Space Lord   Monster Magnet



great song by a great band

Space Lord
Monster Magnet


intro/verse
|--------------------------------------------|
|--------------------------------------------|   
|----------[0][0]-0-2~-----------[0][0]-2-0~-|
|-2~-2-0-2-[0][0]-0-2~--2~-2-0-2-[0][0]-2-0~-|x6 
|-2~-2-0-2-[0][0]-0-0~--2~-2-0-2-[0][0]-0-0~-|   
|-0~-0-0-0--------------0~-0-0-0-------------|
PM          *  *                  *  *

bridge
|---------------------------------------------------------------------|
|---------------------------------------------------------------------|
|-2-2-2-2~-2-2-22--2-2-2-2~-2-2-22--2-2-2-2~-2-2-22--2-2-2-2-2-2-2222-|
|-2-2-2-2~-2-2-22--2-2-2-2~-2-2-22--2-2-2-2~-2-2-22--2-2-2-2-2-2-2222-|
|-0-0-0-0~-0-0-00--0-0-0-0~-0-0-00--0-0-0-0~-0-0-00--0-0-0-0-0-0-0000-|
|---------------------------------------------------------------------|

verse 
|--------------------------------------------|
|--------------------------------------------|   
|----------[0][0]-0-2~-----------[0][0]-2-0~-|
|-2~-2-0-2-[0][0]-0-2~--2~-2-0-2-[0][0]-2-0~-|x6 
|-2~-2-0-2-[0][0]-0-0~--2~-2-0-2-[0][0]-0-0~-|   
|-0~-0-0-0--------------0~-0-0-0-------------|
PM          *  *                  *  *

bridge
|---------------------------------------------------------------------|
|---------------------------------------------------------------------|
|-2-2-2-2~-2-2-22--2-2-2-2~-2-2-22--2-2-2-2~-2-2-22--2-2-2-2-2-2-2222-|
|-2-2-2-2~-2-2-22--2-2-2-2~-2-2-22--2-2-2-2~-2-2-22--2-2-2-2-2-2-2222-|
|-0-0-0-0~-0-0-00--0-0-0-0~-0-0-00--0-0-0-0~-0-0-00--0-0-0-0-0-0-0000-|
|---------------------------------------------------------------------|

this again (only twice)
|--------------------------------------------|
|--------------------------------------------|   
|----------[0][0]-0-2~-----------[0][0]-2-0~-|
|-2~-2-0-2-[0][0]-0-2~--2~-2-0-2-[0][0]-2-0~-|x2 
|-2~-2-0-2-[0][0]-0-0~--2~-2-0-2-[0][0]-0-0~-|   
|-0~-0-0-0--------------0~-0-0-0-------------|
PM          *  *                  *  *

Chorus
|----------------------|
|----------------------|
|--------------11------|
|-13-13-11-13--11-11---|x8
|-13-13-11-13--9--11---|
|-11-11-9--11-----9----|


verse (in this one of the guitars slides the pick down the string and then goes to a phazer)
|--------------------------------------------|
|--------------------------------------------|   
|----------[0][0]-0-2~-----------[0][0]-2-0~-|
|-2~-2-0-2-[0][0]-0-2~--2~-2-0-2-[0][0]-2-0~-|x6 
|-2~-2-0-2-[0][0]-0-0~--2~-2-0-2-[0][0]-0-0~-|   
|-0~-0-0-0--------------0~-0-0-0-------------|
PM          *  *                  *  *


bridge
|---------------------------------------------------------------------|
|---------------------------------------------------------------------|
|-2-2-2-2~-2-2-22--2-2-2-2~-2-2-22--2-2-2-2~-2-2-22--2-2-2-2-2-2-2222-|
|-2-2-2-2~-2-2-22--2-2-2-2~-2-2-22--2-2-2-2~-2-2-22--2-2-2-2-2-2-2222-|
|-0-0-0-0~-0-0-00--0-0-0-0~-0-0-00--0-0-0-0~-0-0-00--0-0-0-0-0-0-0000-|
|---------------------------------------------------------------------|

i cant tell if thats the bass playing loudly or a guitar... sorry.
|--------------------------------------------|
|--------------------------------------------|   
|----------[0][0]-0-2~-----------[0][0]-2-0~-|
|-2~-2-0-2-[0][0]-0-2~--2~-2-0-2-[0][0]-2-0~-|x2 
|-2~-2-0-2-[0][0]-0-0~--2~-2-0-2-[0][0]-0-0~-|   
|-0~-0-0-0--------------0~-0-0-0-------------|


Chorus
|----------------------|
|----------------------|
|--------------11------|
|-13-13-11-13--11-11---|x16
|-13-13-11-13--9--11---|
|-11-11-9--11-----9----|


breakdown gtr 1       then this
|----------------|  |------------------|
|----------------|  |------------------|
|----------------|  |------------------|
|----------------|x4|------------------|x6
|----------------|  |------------------|
|-9~~~~~-5~~~~~~-|  |-9~~~~~-12b/~~~~~-|


gtr 2
|-----------------|
|-----------------|
|---------11~~~~~-|
|-13~~~~~-11~~~~~-|x10
|-13~~~~~-9~~~~~~-|
|-11~~~~~---------|

then back to chorus till fade
|----------------------|
|----------------------|
|--------------11------|
|-13-13-11-13--11-11---|
|-13-13-11-13--9--11---|
|-11-11-9--11-----9----|



Important: The song above is NOT stored on the Chordie server. The original song is hosted at www.guitaretab.com. Chordie works as a search engine and provides on-the-fly formatting. Chordie does not index songs against artists/composers will. To remove this song please click here.

This song is displayed as text-only. Transposing and tuning is only available for chordpro-songs.

Login - add to songbook

Rating click stars to rate

Layout
Accuracy

SHARE PAGE  




You need to log in to post comments