Guitar Tabs, Chords and Lyrics


Temple Of Your Dreams   Monster Magnet



Eb tuning

Verse riff:
eb-----------------------------|
bb-----------------------------|
gb-----------------------------|
db------------------------7-7--|
ab-9--9-9-9-7-7--9--9-9-9------|
eb-----------------------------|

Chorus:
eb-------------------------------------|
bb-------------------------------------|
gb-11--11-11--9--9--14--14-14--16--16--|
db-11--11-11--9--9--14--14-14--16--16--|
ab--9---9--9--7--7--12--12-12--14--14--|
eb-------------------------------------|

eb-------------------|
bb-------------------|
gb-------------------|
db-------------------|
ab-------0-2h3-2-0---|
eb-(2)-2-------------|

Bridge:
eb-----------------|
bb-----------------|
gb-----------------|
db-----------------|
ab-----4-4-----2---|
eb-0-0-----0-0-----|

Verse variation guitar 1:
eb--------------------------------------------------|
bb--------------------------------------------------|
gb--------------------------------------------------|
db------------11-------11\9------9\7-------7thrill9-|
ab-9--------9---------------------------------------|
eb--------------------------------------------------|

Verse variation guitar 2:
eb-------------------------------|
bb-------------------------------|
gb-------------------------------|
db-------------7-------------7---|


Important: The song above is NOT stored on the Chordie server. The original song is hosted at www.guitaretab.com. Chordie works as a search engine and provides on-the-fly formatting. Chordie does not index songs against artists'/composers' will. To remove this song please click here.

This song is displayed as text-only. Transposing and tuning is only available for chordpro-songs.

Login - add to songbook

Rating click stars to rate

Layout
Accuracy

SHARE PAGE  




You need to log in to post comments