Chordie logo

Leaving Paradise   Monte Montgomery



Artist: Monte Montgomery
Title: Leaving Paradise
Album: 1st and Repair
Tuning: Standard w/ capo on 7th fret
Transcribed by: Preston
Email: audiophile8403@austin.rr.com

all frets relative to capo

Intro: 4x
e|-3--3--3--3---3--3---2--|
B|-3--3--3--3---3--3---3--|
G|-0--0--0--0---0--0---2--|
D|-0--0--0--0---0--0---0--|
A|-3--2--3--2---3--2---x--|
E|-0--0--0--0---0--0---2--|

Verse:
e|-------3---------------3------------------3---------------------3----|
B|-------3---------------3------------------3---------------------3----|
G|-------0---------------0------------------0---------------------0----|
D|-------2---------------0------------------2---------------------0----|
A|-------3---------------2------------------3---------------------2----|
E|-------0---------------3------------------0---------------------3----|
Given a time...Given a place...Savour each moment...You can't replace...

e|-----------3-----------------2----------------------0---------2------|
B|-----------3-----------------3----------------------3---------3------|
G|-----------0-----------------2----------------------0---------2------|
D|-----------2-----------------0----------------------2---------0------|
A|-----------3-----------------x----------------------2---------x------|
E|-----------0-----------------2----------------------0---------2------|
Do what you can...To keep it alive...'Cuz time has a way of...Pasing you

Bridge:         __________
              1.          |
e|-3--3--3--3---3--3---3--|
B|-3--3--3--3---3--3---3--|
G|-0--0--0--0---0--0---0--|
D|-0--0--0--0---0--0---0--|  2x
A|-3--2--3--2---3--2---x--|
E|-0--0--0--0---0--0---2--|
   by

Pre-Chorus:       Chorus:
  _______________
2.               |
e|-3--3---3--3--2-----------------3--------3-----3-------------3-------|
B|-3--3---3--3--3-----------------3--------3-----3-------------3-------|
G|-0--0---2--0--2-----------------0--------0-----0-------------0-------|
D|-0--0---2--2--0-----------------2--------0-----2-------------0-------|
A|-3--2---0--0--x-----------------3--------2-----3-------------2-------|
E|-0--0---0--0--2-----------------0--------3-----0-------------3-------|
                  I know there's only one life...You've got to live it...

e|-2-----------3--3--3-------------------------3--------------|
B|-3-----------3--3--3-------------------------3--------------|
G|-2-----------0--0--0-------------------------0--------------|
D|-0-----------0--0--2-------------------------2--------------|
A|-x-----------2--x--2-------------------------3--------------|
E|-2-----------3--2--0-------------------------0--------------|
Or kiss it goodbye...Look over your shoulder...Don't ask why...

e|-3-3------3--0----2-----------|
B|-3-3------3--3----3-----------|
G|-2-0------0--0----2-----------|
D|-2-2------2--2----0-----------|
A|-0-0------3--3----x-----------|
E|-0-0------0--0----2-----------|
   I can't say so long to para-

e|-3--3--3--3---3--3---3--|

B|-3--3--3--3---3--3---3--|
G|-0--0--0--0---0--0---0--|
D|-0--0--0--0---0--0---0--|  2x
A|-3--2--3--2---3--2---x--|
E|-0--0--0--0---0--0---2--|


Important: The song above is NOT stored on the Chordie server. The original song is hosted at www.guitaretab.com. Chordie works as a search engine and provides on-the-fly formatting. Chordie does not index songs against artists/composers will. To remove this song please click here.

This song is displayed as text-only. Transposing and tuning is only available for chordpro-songs.

Login - add to songbook

Rating click stars to rate

Layout
Accuracy

SHARE PAGE  

You need to log in to post comments