Chordie logo


Universe   Monty Python



i was here ages getting these
please rate and comment
DROP C# TUNUNG
you can do the order, its quite simple

.........PM..........
---------------------|
---------------------|
---------------------|
---------------------|
---------------------|
-7777799101012121212-|

.......PM........
-------------------|
-------------------|
-------------------|
-------------------|
-------------------|
-55555779910101010-|

.......PM........
----------------|
----------------|
----------------|
----------------|
----------------|
-33333557799999-|

---000000-|
---000000-|
---000000-|
-22222222-|
-22222222-|
----------|

----------------------|
----------------------|
----------------------|
-7-7-9-10-12-12-12-12-|
-7-7-9-10-12-12-12-12-|
-7-7-9-10-12-12-12-12-|

---------------------|
---------------------|
---------------------|
-5-5-7-9-10-10-10-10-|
-5-5-7-9-10-10-10-10-|
-5-5-7-9-10-10-10-10-|

-----------------|
-----------------|
-----------------|
-3-3-5-7-9-9-9-9-|
-3-3-5-7-9-9-9-9-|
-3-3-5-7-9-9-9-9-|

---000000-|
---000000-|
---000000-|
-22222222-|
-22222222-|
----------|

------------------|
------------------|
-5----7----8---10-|
-7----9---10---12-|
------------------|
------------------|

-----------------|
-----------------|
-3----5---7----8-|
-5----7---9---10-|
-----------------|
-----------------|

----------------| ----------------|i've noticed that it is played much lower
----------------| ----------------|and this second part is correct, but i
-1----3---5---7-| -1--------------|havn't figured it out for the other 2
-3----5---7---9-| -3----0---1---3-|
----------------| ------2---3---5-|
----------------| ----------------|

-----0--|
-----0--|
-1---1--|
-2---2--|strum up
-2---2--|
--------|

---------------------------------------------------------------|
---------------------------------------------------------------|
--8--7-----7---8--10---8--7--10---8----7--5----5--7---8--7--5--|
-10--9-----9--10--12--10--9--12--10----9--7----7--9--10--9--7--|
---------------------------------------------------------------|
---------------------------------------------------------------|
"mother...."

stop here 1st time      
---------------|------------------------------------------------|
---------------|------------------------------------------------|
---------------|------------------------------------------------|
--8--7----5--4-|--7---8--10---8--7-10---------------------------|
-10--9----7--6-|--9--10--12--10--9-12---------------------------|
---------------|------------------------------------------------|
slight palm mute and hit each multipe time (not too rapid)

100% certain on this solo. It isn't played here, but i find it's easier to play it my way.
------------------------------------------------------------------------|
-10-10-10-10--10-10------------------------------10---------------------|
--------------------9--9-9-12-10-10-10-10--12-12----10-9-9-9-9-10-10----|
------------------------------------------------------------------------|
------------------------------------------------------------------------|
------------------------------------------------------------------------|

---------------------------------------------------------------|
---------------------------------------------------------------|
-9-7-7-7-5-4-4-4-4---------------------------------------------|
--------------------7-6----------------------------------------|
---------------------------------------------------------------|
---------------------------------------------------------------|

does this part 2nd time round
-12-12-12-12-12-13-13-15-13-13-13-13-12-12-10-10-12-12-12-13-13-12-12-|fast
----------------------------------------------------------------------|
----------------------------------------------------------------------|
----------------------------------------------------------------------|
----------------------------------------------------------------------|
----------------------------------------------------------------------|

-10-8-7-5----7-5---------------|
-----------8-----8-6-5--3------|
---------------------------5-4-|
-------------------------------|
-------------------------------|


Important: The song above is NOT stored on the Chordie server. The original song is hosted at www.guitaretab.com. Chordie works as a search engine and provides on-the-fly formatting. Chordie does not index songs against artists/composers will. To remove this song please click here.

This song is displayed as text-only. Transposing and tuning is only available for chordpro-songs.

Login - add to songbook

Rating click stars to rate

Layout
Accuracy

SHARE PAGE  




You need to log in to post comments