"yes"; ?> Tuesday Afternoon by Moody Blues - guitar chords, guitar tabs and lyrics - chordie

Tuesday Afternoon

Moody Blues

-------------------------------------------------------------------------------


 Am
e|---------------------------|---------------0----------|----------------0---|
B|----1--0----0-1-3-1-0------|-1--0----0-1-3---1-0------|-1-----3----3-------|
G|-2------2-------------0-2--|------2---------------0-2-|----2----4------5-5-|
D|-2-------------------------|---------------2----------|--------------------|
A|----0-------0-0-0-0-0--0-0-|-0-------0-0-0---0-0--0-0-|-0-----0----0-----0-|
E|---------------------------|--------------------------|--------------------|
e|---|-----------------0-----------------------------------------------------|
B|-3-|---1--0----0-1-3--1---0-1----------------------------------------------|
G|---|-2-----2------------2--------------------------------------------------|
D|-4-|-2---------------2-----------------------------------------------------|
A|---|---0-------0-0-0----0-0------------------------------------------------|
E|---|-----------------------------------------------------------------------|
A|---------------------------------------------------------------------------|


 FCBbAm7D
Tuesday afternoon, I'm just beginning to see, now I'm on my way
 CBbAm7D
 It doesn't matter to me, chasing clouds away
 FCBb
Something calls to me, the trees are drawing me near
 Am7DCBbAm7
 I've got to find out why, those gentle voices I hear, explaining all with a
D G# B# G# G/F/C/ Repeat 8x
sigh, ahh ahh ahh ahh ahh ahh ahh ahh
 GFCGGFCG
I'm looking at myself reflections of my mind
 GFCGGFCG
It's just the kind of thing that leaves myself behind
 GFCGGFCGGFCG
So gently swaying through the fairy land of love if you just come with me
 GFCFCGGFCGGFCFCD
we'll see the beuty of, Tuesday afternoon            Tuesday afternoon
(Repeat Intro)

Tuesday afternoon, I'm just beginning to see
now I'm on my way, it doesn't matter to me, chasing clouds away
Something calls to me, the trees are drawing me near, I've got to
find out why
those gentle voices I haer, explaining all with a sigh ahh ahh ahh ahh ahh ahh ahh ahhhhhh












Am Am7 Bb C D F G
variations - click chord images
Transpose chords:
Tuning:
Cool service:
View: Size:
A  A  A
Rating:
Layout:
  • Currently 3.3/5 Stars.
  • 1
  • 2
  • 3
  • 4
  • 5
 
Accuracy:
  • Currently 2.8/5 Stars.
  • 1
  • 2
  • 3
  • 4
  • 5
 
click stars to rate
Chordie recommends:
Get acoustic guitar lessons and electric guitar lessons at JamPlay.com
Songbook:
Login to add this song to your songbook
Support the artist
Preview/buy this song
MSN Music
Why this non-profit ad?

 
login to add comments/video/corrections