Guitar Tabs, Chords and Lyrics


Vampiria   Moonspell








  
Band:  Moonspell
Album: Wolfheart
Song:  Vampiria

Transcribed By: Roger Giralt (Metal Knight)
Email:          rogeragz@hotmail.com


Tuning: 
D|-
A|-
F|-
C|-
G|-
D|-

									
Riff 1                                                                 
|-------------------------------------------------------------------------------|
|-------------------------------------------------------------------------------|
|-------------------------------------------------------------------------------|
|------------9--8-------------9-10--9-------------9--8---------7----------6ph.--|
|--2---------7--6---2---------7--8--7---2---------7--6--------------------------|
|--0---0--0---------0---0--0------------0---0--0---------0--0----0--0--0--------|
       *  *             *  *                *  *         *  *    *  *  *  


Riff 2                                                                    
|-------------------------------------------------------------------------------| 
|-------------------------------------------------------------------------------| 
|-------------------------------------------------------------------------------| 
|------------9--8-------------9-10--9-------------9--8--------7-----6h7--9h10---| 
|--2---------7--6---2---------7--8--7---2---------7--6---7--8---8---------------| 
|--0---0--0---------0---0--0------------0---0--0--------------------------------| 
       *  *             *  *                *  *         *      *


Riff 3  
|----------------------------------------------------|
|----------------------------------------------------|
|----------------------------------------------------|
|--2---2--2--2-2-2--2-2-2----4---4--4--4-4-4--4-4-4--|
|--2---2--2--2-2-2--2-2-2----4---4--4--4-4-4--4-4-4--|
|--0---0--0--0-0-0--0-0-0----2---2--2--2-2-2--2-2-2--|
       *  *  * * *  * * *        *  *  * * *  * * *

|----------------------------------------------------|
|----------------------------------------------------|
|----------------------------------------------------|
|--5---5--5--5-5-5--5-5-5----7---7--7----------------|
|--5---5--5--5-5-5--5-5-5----7---7--7-------7h8-7----|
|--3---3--3--3-3-3--3-3-3----5---5--5--7-------------|
   *   *  *  * * *  * * *        *  *  



Riff 4a                         Riff 4b                        
                               |
1|-----------------------------|--------------------------|
2|-----------------------------|--------------------------|
3|-----------------------------|--------------------------|
4|------8~---------------------|------8~------------------|
5|--6~------3~--5p6-5---5-5-5--|--6~------3~--5p6-5—-5(5)-|
6|----------------------3-3-3--|---------------------3(3)-|
                        * *                            *




Here is the order of the song:

Riff 1

Riff 2-  3x

Riff 3-  4x (Synth. Goes over 3rd and 4th time)

Riff 1      (instead of 6ah. play 5~)

Riff 2-  3x (at the end, play the first chord and hold it 24s., then add feedback for 5s.)

Riff 4a- 7x (after chimes)

Riff 4b
                              

*  - palm mute           /  - slide up to
\  - slide down to       ~  - vibrato
h  - hammer on           b  - Bend
p  - pull off            Suffixes for bend
t  - tap                 f  - full bend    h - half bend
ph - pinched harmonic    q  - quarter bend t - tap bend
*  - see comment         ^  - Hold bend    r release bend
x  - Stuccatto           ~  - vibrato bend
,  - slight palm mute    () - ghost note, sustained note


Important: The song above is NOT stored on the Chordie server. The original song is hosted at www.guitaretab.com. Chordie works as a search engine and provides on-the-fly formatting. Chordie does not index songs against artists'/composers' will. To remove this song please click here.

This song is displayed as text-only. Transposing and tuning is only available for chordpro-songs.

Login - add to songbook

Rating click stars to rate

Layout
Accuracy

SHARE PAGE  




You need to log in to post comments