Travel On

Morning Glory

 CC/AAmFAm
1|------------------------------------------------------------------------------------------|
2|------1-----------1---------1--------1----------1----------1----------------------1-------|
3|---------0----------0---------2--------2-----------2---------2----------------------0-----|
4|------------2---------2---------2--------2---3--------3-2------2---3-2-0---------------2--|
5|--3------------2--------0---------0------------------------------------------3------------|
6|---------------------------------------------------------------------------------3--------|


Fig.2
 CC/AAmFAmG
1|------------------------------------------------------------------------------------------|
2|-----1--------1--------1-------1---------1---------1------------3-3---3-3-3---0h1-0h1--0--|
3|-------0--------0--------2-------2---------2---------2----------0-0---0-0-0---0h0-0h0--0--|
4|---------2--------2--------2-------2---3-----3-2------2---------0-0---0-0-0---0h2-0h2--0--|
5|--3--------2--------0--------0------------------------------------------------------------|
6|-------------------------------------------------------------3----------------------------|


Fig.3
 CC/AAmC6D7F
1|-----------------------------------------------------------------------------|
2|-----1--------1--------1--------1--------1--------1-------1---1-1-1-1-1-x-x--|
3|-------0--------0--------2--------2--------2--------2-----2---2-2-2-2-2-x-x--|
4|---------2--------2--------2--------2--------0--------0---3---3-3-3-3-3-x-x--|
5|--3--------2--------0-------------------------------------3---3-3-3-3-3-x-x--|
6|-------------------------------3--------2--------2---------------------------|

*On the F chord get louder
start slightly palm muted and decrease the amount of muting gradually.

Chorus

C F (I don't like the 1 in brackets)
1|-------|---(1)------------|
2|---1---|----1-------------|
3|---0---|----2-------------|
4|---2---|----3-------------|
5|---3---|----3-------------|
6|---3---|------------------|


 CF
         Do what's True.      True To You
 CF
         Don't let the world tell you what to do.
 CF
         There's no wrong.        Travel On.
C F C F (hold)
Do what's True. True To You

Outro
 C/FG#7C
1|---1p0------------------------0----------|
2|---------1p0------------------1----------|
3|---------------0--------------0----------|
4|-----------------4------4--4--2----------|
5|-------------------3----3--3--3----------|
6|---------------------4-------------------|


Order

Verse Fig.1
Verse Fig.2
Verse Fig.1 (X2)
Verse Fig.2
Verse Fig.3
Chorus
Verse Fig.1 (X2)
Verse Fig.2
Verse Fig.3
Chorus
Verse Fig.1
Verse Fig.2
Verse Fig.1 (X2)
Verse Fig.2
Verse Fig.3
Chorus
Outro


Am C C/F C6 D7 F G G#7
variations - click chord images
Transpose chords:
Tuning:
Cool service:
View: Size:
A  A  A
Rating:
Layout:
  • Currently 0/5 Stars.
  • 1
  • 2
  • 3
  • 4
  • 5
 
Accuracy:
  • Currently 0/5 Stars.
  • 1
  • 2
  • 3
  • 4
  • 5
 
click stars to rate
Chordie recommends:
Learn to play guitar with video-based, online guitar lessons at JamPlay.com
Songbook:
Login to add this song to your songbook
Support the artist
Preview/buy this song
MSN Music
Why this non-profit ad?

 
login to add comments/video/corrections