Be All You Want Me To Be

Morning Runner

 133211-F
        x33011 F/G

CAPO 2md FRET!!!

Intro

e------------------------------------------------------------------|
b------------------------------------------------------------------|
g------------------------------------------------------------------|
d-----------------4-4-4-4-4-4-4-4----------------------------------|
a-5-5-5-5-5-5-5-5-5-5-5-5-5-5-5-5-5-5-5-5-5-5-5-5-5-5-5-5-5-5-5-5--|
e------------------------------------------------------------------|


Verse:

 CC
        Be all that you want me to be,
 Am
        I wont take this lying down
 AmAmAmB/C
        All the time, All the time, All the time   

d--7-7-7-7b-7-7-7-7-7-7-7-7b-7-7-7-7------------------------------|
a-----------------------------------------------------------------|
e--5-5-5-5--5-5-5-5-5-5-5-5--5-5-5-5------------------------------|


 CC
        And see all that you want me to see
 B/CAm
        I wont take this lying down
 AmAmAm
        All the time, All the time, All the time

d--7-7-7-7b-7-7-7-7-7-7-7-7b-7-7-7-7------------------------------|
a-----------------------------------------------------------------|
e--5-5-5-5--5-5-5-5-5-5-5-5--5-5-5-5------------------------------|


Chorus:
 FFCC/B
You can make it, don?t sigh, I know I know I know
 FFCC/B
        It?s not a bed of roses I know I know I know
 FFCC/B
        You can make it, don?t sigh, I know I know I know
 FFCC/B
        It?s not a bed of roses I know I know I know

e-------------------------------------------------------------------|
b-------------------------------------------------------------------|
g-------------------------------------------------------------------|
d-----------------4-4-4-4-4-4-4-4-----------------------------------|
a-5-5-5-5-5-5-5-5-5-5-5-5-5-5-5-5-5-5-5-5-5-5-5-5-5-5-5-5-5-5-5-5---|
e-------------------------------------------------------------------|


Verse:
 CC
        Break all that you want me to break
 Am
        You wont keep me quiet now
 AmAmAmB/C
        All the time, All the time, All the time    
 CC
        Deal the hand your wish that I would deal
 Am
        You wont keep me quiet now
 AmAmAm
        All the time, All the time, All the time

d--7-7-7-7b-7-7-7-7-7-7-7-7b-7-7-7-7------------------------------|
a-----------------------------------------------------------------|
e--5-5-5-5--5-5-5-5-5-5-5-5--5-5-5-5------------------------------|


Chorus:
 FFCC/B
You can make it, don?t sigh, I know I know I know
 FFCC/B
        It?s not a bed of roses I know I know I know
 FFCC/B
        You can make it, don?t sigh, I know I know I know
 FFCC/B
        It?s not a bed of roses I know I know I know

Outro:

 F/GCC/B
        You I'll find, I wont see you inside I wont feel you loud and clear
 FF/GCC/B
        I cant see you in the dark, I cant see you in the lights, Oh what a sorry sight

Please rate!


Am B/C C C/B F F/G
variations - click chord images
Transpose chords:
Tuning:
Cool service:
View: Size:
A  A  A
Rating:
Layout:
  • Currently 2.3/5 Stars.
  • 1
  • 2
  • 3
  • 4
  • 5
 
Accuracy:
  • Currently 3.3/5 Stars.
  • 1
  • 2
  • 3
  • 4
  • 5
 
click stars to rate
Chordie recommends:
Learn how to play guitar at JamPlay.com
Songbook:
Login to add this song to your songbook
Support the artist
Preview/buy this song
MSN Music
Why this non-profit ad?

 
login to add comments/video/corrections