eToCache5 = ""; ?> My Life Love by Morrissey - guitar chords, guitar tabs and lyrics - chordie

My Life Love

Morrissey

 GCAD
|-----------------|-----------------|-----------------|-----------------|
|-----------------|-----------------|-----------------|-----------------|
|-----------------|-----------------|-----------------|-----------------|
|---5-5---5-5---5-|---5-5-5---5---5-|---7-7---7-7---7-|---7-7-7---7---7-|
|------------5----|-3-------3---3---|-------------7---|-5-------5---5---|
|-3----3----------|-----------------|-5-----5---------|-----------------|

Guitar II: *
 GCAD
|-3------------3--|-----------------|-0---------------|-----------------|
|-3------------3--|-5------4--------|-3---------------|-----------------|
|-4------------4--|-5------4--------|-3---------------|-----------------|
|-5------------5--|-5------4--------|-3---------------|-----------------|
|-5------------5--|-3------2--------|-0---------------|-----------------|
|-3------------3--|-----------------|-----------------|-----------------|

* Note: every other time instead this is played, I think...
 AD
				    |-----------------|-----------------|
				    |-7---------------|-----------------|
				    |-7---------------|-----------------|
				    |-7---------------|-----------------|
				    |-5---------------|-----------------|
				    |-----------------|-----------------|

Main riff, something sort of like this:
 GCAD
|---3-3-3---3---3-|---3-3-3---3---3-|---5-5-5---5---5-|---5-5-5---5---5-|
|-3-------3---3---|---------5---5---|-7-------7---7---|-7-------7---7---|
|-----------------|-5---------------|-7---------------|-7---------------|
|-----------------|-----------------|-----------------|-----------------|
|-----------------|-----------------|-----------------|-----------------|
|-----------------|-----------------|-----------------|-----------------|

For the chorus(?) part, I use this shape to play all the chords, sliding
the chords:
 EADGBE
|-----------|
|--*--------|
|-----------|
|----*-*-*--|

Here's the song:
Intro times 4
Repeat main riff until chorus
come on to my house
come on and do something new
I know you love, one person
but why can't you love two?
(chorus)
 EGDCD
        give a little something  
E G D *C D * note: pick with first three strings
give a little something and slide chords
(main riff)
to my love life
my love life
my love life
oh..
I know you love one person
why don't you love two?
etc...
=========================================================================
Someone else please post more Smiths/Morrissey, Pixies, J&M Chain,
Sex Pistols, Lush, or anything else slightly "alternative", that
guitar magazines fail to comprehend.
Good night, and thank you,
Jerry, (jarnail@sfu.ca)






A B C D E G
variations - click chord images
Transpose chords:
Tuning:
Cool service:
View: Size:
A  A  A
Rating:
Layout:
  • Currently 2.8/5 Stars.
  • 1
  • 2
  • 3
  • 4
  • 5
 
Accuracy:
  • Currently 2.5/5 Stars.
  • 1
  • 2
  • 3
  • 4
  • 5
 
click stars to rate
Chordie recommends:
Learn how to play guitar at JamPlay.com
Songbook:
Login to add this song to your songbook
Support the artist
Preview/buy this song
MSN Music
Why this non-profit ad?

 
login to add comments/video/corrections