Guitar Tabs, Chords and Lyrics


A Strange New Place   Moses Mayfield



Moses Mayfield
Strange New Place


INTRO
e--------------------------------------------------------------|
b--------------------------------------------------------------|
g--------------------------------------------------------------|
d--------------------------------------------------------------|
a------5-77--5-77--577--577--44--------------------------------|
e---------------------------------55----repeat-----------------|


MAIN RIFF/VERSE
e---------------------------|-------------------------------------|
b---------------------------|-------------------------------------|
g---------------------------|-------------------------------------|
d-----5---------------------|-------5-------------------7--7-9-5--|
a-5-7---7-5--55-54----------|---5-7---7-5--5-5---5-4--------------|
e-----------------5--5-7-3--|-------------------------------------|

NOTE: I did not put any hammer ons or pull offs, you gotta put some effort into it and 
that out yourself, its easy i promise.

"wake up, and taste this love grown cynical....."

CHORUS
e---0----------2-------0---------------------|
b---0----------2-------0---------------------|
g---0----------4-------2---------------------|
d---2----------4-------2---------------------|
a---2----------2-------0---------------------|
e---0----------x-------x---------------------|
"im goin to go..so please dont leave me...."

FILL
e----------------------------------------------------------|
b----------------------------------------------------------|
g----------------------------------------------------------|
d------------7-7--7p6--------------------------------------|
a----5---7-------------------5--7---9-9-9p7----------------|
e----------------------------------------------------------|
it does this after/during one chorusÂ…you should be able to hear when it happens.

NOTE: the chorus before the bridge (2nd chorus) we drop to the E before going into the bridge

BRIDGE
e--------------------------------------------|
b--------------------------------------------|
g--------------------------------------------|
d---5----7-----------------------------------|
a---5----7-----------------------------------|
e---3----5-----------------------------------|

"i want you to know....."



Important: The song above is NOT stored on the Chordie server. The original song is hosted at www.guitaretab.com. Chordie works as a search engine and provides on-the-fly formatting. Chordie does not index songs against artists'/composers' will. To remove this song please click here.

This song is displayed as text-only. Transposing and tuning is only available for chordpro-songs.

Login - add to songbook

Rating click stars to rate

Layout
Accuracy

SHARE PAGE  




You need to log in to post comments