eToCache5 = ""; ?> Wrecking Ball by Mother Mother - guitar chords, guitar tabs and lyrics - chordie

Wrecking Ball

Mother Mother

 C
e|-----------------------------|
B|-----------------------------|
G|-----0--2--4--2--0-----0-----|
D|--2-----------------4-----2--|
A|--3-----------------------3--|
E|-----------------------------|


Gtr 2
 C
e|--0------0------0------0-----|
B|------1------1------1------1-|
G|----0-0----0-0----0-0----0-0-|
D|-----------------------------|
A|-----------------------------|
E|-----------------------------|


Do that x2. Then:

Gtr 1
 G6
e|-------------------------------------------------------------------------|
B|-------------------------------------------------------------------------|
G|-----0--2--4--2--0-----0-----0--2--4--2--0-----0-----------0-------------|
D|--0-----------------4-----0-----------------4-----0--2--4-----4--2--2--0-|
A|--2-----------------------2-----------------------2----------------------|
E|--3-----------------------3-----------------------3----------------------|


Gtr 2
 G6
e|---0-------0--------0-------0-------0-------0--------0-------0-----------|
B|--------3-------3--------3-------3-------3-------3--------3-------3------|
G|------4-4-----4-4------4-4-----4-4-----4-4-----4-4------4-4-----4-4------|
D|-------------------------------------------------------------------------|
A|-------------------------------------------------------------------------|
E|-------------------------------------------------------------------------|


So just repeat that whole section as needed for the intro/verse until:

Chorus

 AmF
   I am unruly in the stands,
 C
I am a rock on top of the sand,
 D
I am a fist amidst the hands
 D
and I break it just because I can.

Then there's another verse, then chorus then:

Bridge

 GEmD
 Let's break it! 
(just because we can.)
 GEmD
 Deface it!  
(just because we can.)
 GEm
 Let's break it!
 FAmFAm
 Just because.. just because.. just because..
 FGC
just beca   a  ause

The C chord from the bridge melds back into the chorus with a fingerpicked C
chord. Descend the root note from C to B then into the Am root note:

 CBAm
e|-----------0------------|
B|-----------1------------|
G|-----------2------------|
D|-----------2------------|
A|--3--2--0--0------------|
E|------------------------|


In fact, do that when going from C to Am in this entire next section
until the "because i can" part.

 AmF
   I am unruly in the stands
 C
I am a rock on top of the sand
 Am
  I am a fist amidst the hands
 F
and I make a wreck out of my hand
 C
  I make a fist and not a plan
C! Am <--Start strumming hard!
and I break it just because I can!
 FC
because I can! because I can!
 AmF
because I can! because I can!
 CAm
because I can! because I can!
 FGC
because I ca  a  ann...

The C melds into the first bit from the intro/verse, which gets played a couple
times. The last time, though, the second part ends like this:

e|-------------------------|
B|-------------------------|
G|-----------0-----------0-|
D|--0--2--4-----4--2--4----|
A|--2----------------------|
E|--3----------------------|


That's it! Mostly, anyway. Enjoy!


Am B C D Em F G G6
variations - click chord images
Transpose chords:
Tuning:
Cool service:
View: Size:
A  A  A
Rating:
Layout:
  • Currently 0/5 Stars.
  • 1
  • 2
  • 3
  • 4
  • 5
 
Accuracy:
  • Currently 0/5 Stars.
  • 1
  • 2
  • 3
  • 4
  • 5
 
click stars to rate
Chordie recommends:
Get acoustic guitar lessons and electric guitar lessons at JamPlay.com
Songbook:
Login to add this song to your songbook
Support the artist
Preview/buy this song
MSN Music
Why this non-profit ad?

 
login to add comments/video/corrections