"yes"; ?> Together We Will Ring In The New Year by Motion City Soundtrack - guitar chords, guitar tabs and lyrics - chordie

Together We Will Ring In The New Year

Motion City Soundtrack

-------------------------------------------------------------------------------

-------------------------------------------------------------------------------
| e--------|--------|------------|---------------|
| B--------|--------|------------|---------------|
| G--------|--------|------------|---------------|
| D--6-----|--6-----|------------|---------------|
| A--6-----|--6-----|--10----6---|--10--6--------|
| D--6-----|--6-----|--10----6---|--10--6--5-6/3-|
| e-----------------------------------------------------------------|
| B-----------------------------------------------------------------|
| G-8-8-8-8-8-8-8-8-5-5-5-5-5-5-5-5-6-5-6-5-6-5-6-5-6-5-6-5-6/8-----|
| D-6-6-6-6-6-6-6-6-6-6-6-6-6-6-6-6-6-6-6-6-6-6-6-6-6-6-6-6-6-----6-|
| A-6-6-6-6-6-6-6-6-----------------------------------------------6-|
| D-----------------------------------------------------------------|
e--------|--------|
B--------|--------|
G--------|--------|
D--------|--------|
A-3------|-4------|
D-3------|-4------|
e--------|--------|--------|--------|
B--------|--------|--------|--------|
G----6---|-8--6---|----6---|--------|
D-6--6---|-8--6---|-6--6---|-4--1---|
A-6--4---|-6--4---|-6--4---|-4--1---|
D-6------|--------|-6------|-4--1---|
e--------|--------|
B--------|--------|
G--------|-6------|
D--------|-6------|
A-3------|-4------|
D-3------|--------|

 1234223432
    ]    ]    ]    ]    ]    ]    ]    ]    ]    ]                                                        
e-----8-------8---------------------------|
B---9---9--9----9---9---11--9---9---------|
G-8-------8-8-----8---8---8---8---6-6-6-5-|
D-----------------------------------------|
A-----------------------------------------|
D-----------------------------------------|				








variations - click chord images
Transpose chords:
Tuning:
Cool service:
View: Size:
A  A  A
Rating:
Layout:
  • Currently 0/5 Stars.
  • 1
  • 2
  • 3
  • 4
  • 5
 
Accuracy:
  • Currently 3.9/5 Stars.
  • 1
  • 2
  • 3
  • 4
  • 5
 
click stars to rate
Chordie recommends:
Learn to play this song & others via video guitar lessons at JamPlay.com
Songbook:
Login to add this song to your songbook
Support the artist
Preview/buy this song
MSN Music
Why this non-profit ad?

 
login to add comments/video/corrections