Guitar Tabs, Chords and Lyrics


Calling All Cops   Motion City Soundtrack



-----------------------------------------------------------------
Calling All Cops - Motion City Soundtrack
-----------------------------------------------------------------
Tabbed by: Bair
Email: bair_morritt@hotmail.com
Tuning: Standard

**The chords version was okay but missed a bunch and there was no need for
a capo in my opinion.**

Verse:
e|-----------------------------------------------|
B|-----------------------------------------------|
G|--66666666-------------------------------------|
D|--66666666--44444444--88888888--66666666-(X4)--|
A|--44444444--44444444--88888888--66666666-------|
E|------------22222222--66666666--44444444-------|
"Calling all cops and autobots, I hope that your still there."

Riff 1:
e|-999-9-8-999-9-8-999-9-8-999-9-8----------|
B|------------------------------------------|
G|------------------------------------------|  (X2)
D|------------------------------------------|
A|------------------------------------------|
E|------------------------------------------|

Verse 2:
e|-----------------------------------------------|
B|-----------------------------------------------|
G|--66666666-------------------------------------|
D|--66666666--44444444--88888888--66666666-(X4)--|
A|--44444444--44444444--88888888--66666666-------|
E|------------22222222--66666666--44444444-------|
"Calling all dolls and concert halls, the curtain hits the cast."

Riff 1:
e|-999-9-8-999-9-8-999-9-8-999-9-8----------|
B|------------------------------------------|
G|------------------------------------------|
D|------------------------------------------|
A|------------------------------------------|
E|------------------------------------------|

Chorus:
e|------------------------------------------|
B|------------------------------------------|
G|--66666666--------------------------------|
D|--66666666--44444444--88888888--66666666--|
A|--44444444--44444444--88888888--66666666--|
E|------------22222222--66666666--44444444--|
"When I'm awake I make the same mistakes they make."

Part2:
e|---------------------------------------------|
B|---------------------------------------------|
G|--66666666------------66-6-8-6---66-6-8-6----|
D|--66666666--44444444--66-6-8-6-4-66-6-8-6-4--|
A|--44444444--44444444--44-4-6-4-4-44-4-6-4-4--|
E|------------22222222-----------2----------2--|
"When I'm awake I can't escape."

Part3:
e|------------------------------------------|
B|------------------------------------------|
G|--66666666--------------------------------|
D|--66666666--44444444--88888888--66666666--|
A|--44444444--44444444--88888888--66666666--|
E|------------22222222--66666666--44444444--|
"When I'm awake I make the same mistakes they make."

Part4:
e|------------------------|
B|------------------------|
G|--66666666--------------|
D|--66666666--44444444----|
A|--44444444--44444444----|
E|------------22222222----|
"And everything just falls apart."

Verse 3:
e|------------------------------------------------|
B|------------------------------------------------|
G|--66666666--------------------------------------|
D|--66666666--44444444--88888888--66666666-(X4)-4-|
A|--44444444--44444444--88888888--66666666------4-|
E|------------22222222--66666666--44444444------2-|
"Calling all cops and autobots, I hope that your still there."

Riff 1:
e|-999-9-8-999-9-8-999-9-8-999-9-8----------|
B|------------------------------------------|
G|------------------------------------------|  X2
D|------------------------------------------|
A|------------------------------------------|
E|------------------------------------------|

-Then Chorus
-Then Part2
-Then Chorus
-Then Part2

Outro:
e|-------------------------|
B|-------------------------|
G|--4-----6----------------|
D|--4--4--6-(LET-RING)-----|
A|--2--4--4----------------|
E|-----2-------------------|


Important: The song above is NOT stored on the Chordie server. The original song is hosted at www.guitaretab.com. Chordie works as a search engine and provides on-the-fly formatting. Chordie does not index songs against artists'/composers' will. To remove this song please click here.

This song is displayed as text-only. Transposing and tuning is only available for chordpro-songs.

Login - add to songbook

Rating click stars to rate

Layout
Accuracy

SHARE PAGE  




You need to log in to post comments