Death Defy

Motor Ace

e--1--starts on f,         --------------3----4-------|

B--1--hold f then do -3---4--------4----4-------|
G--2--other chords -3---3--------3----1-------|x4
D--3--and don't play f -3---3--------1----3-------|
A--3--for the rest of the -1---1-------------4-------|
E--1--intro ---------------------------|
e-------------------------------|
B-------------------------------|
G-77777777-88888888-------------|x2(come in lst two times of the intro)
D-------------------------------|
A-------------------------------|
E-------------------------------|

 BbA#sus3Cadd9#
e-------------------4-------------------------------------------|
B----3-----4--------4-------------------------------------------|
G----3-----3--------1-------------------------------------------|
D----3-----3--------3---------x---------------------------------|8(afetr 4th time
A----1-----1--------4---------   guitar 2 srum a#sus3 on cadd9--|
E---------------------------------------------------------------|   till pre-chours)

..........................

pre-chourus
chords are picked
 BbA#sus3F
e---------------------------------------------------------|
b--------------------4------------------------------------|
g--------3---------3--------------2-----------------------|
d-----3----------3--3----------3--------------------------|
a---1---1-------------------------------------------------|
E----------------------------1---1------------------------|


chorus rhythm x4
 BbA#sus3BbG5BbA#sus3
e-----------------------------------------|
b----3-3--4-------3-3-3-----------3---4---|
g----3-3--3-------3-3-3-----------3---3---|
d----3-3--3-------3-3-3---5-5-5---3---3---|
a----1-1--1-------1-1-1---5-5-5---1---1---|
E-------------------------3-3-3-----------|


chorus lead last two times of the rhythm

e--------------|
b----4-3-3-4---|
g----3-3-3-3---|  till end of chorus
d----3-3-3-3---|
a--------------|
E--------------|


intro but only twice

verse
pre chorus
chorus

bridge rhythmx6
 BbA#sus3G#5/Bb5F5
e-----------------------------------------|
b--3-3-3----4-4-4-------------------------|
g--3-3-3----3-3-3-------------------------|
d--3-3-3----3-3-3--6-6-6/8---3-3----------|
a--1-1-1----1-1-1--6-6-6/8---3-3----------|
E------------------4-4-4/6---1-1----------|


bridge after rhythm plays twice
e----------------------------------------------|
b----------------------------------------------|
g---7--5--8--7--10--8--12--10--7--5--8--7-7/15-|
d----------------------------------------------|
a----------------------------------------------|
E----------------------------------------------|


bridge
chorus


Bb F F5 G5
variations - click chord images
Transpose chords:
Tuning:
Cool service:
View: Size:
A  A  A
Rating:
Layout:
  • Currently 3/5 Stars.
  • 1
  • 2
  • 3
  • 4
  • 5
 
Accuracy:
  • Currently 2/5 Stars.
  • 1
  • 2
  • 3
  • 4
  • 5
 
click stars to rate
Chordie recommends:
Learn to play guitar with video-based, online guitar lessons at JamPlay.com
Songbook:
Login to add this song to your songbook
Support the artist
Preview/buy this song
MSN Music
Why this non-profit ad?

 
login to add comments/video/corrections