Guitar Tabs, Chords and Lyrics


Eat The Rich  Motorhead

e|--------------------------------------------------------------|


B|--------------------------------------------------------------|


G|--------------------------------------------------------------|

D|-----5-----5-----5-----5-----5------5-----5-----5-----5-----5-|
A|-6-7---6-7---6-7---6-7---6-7---6--7---6-7---6-7---6-7---6-7---|
E|--------------------------------------------------------------|
[A]   They say music is the food of love,
[A]   Let's see if you are hungry enough,
[E]   Take a bite,[D] take another,
[E]   Just like a good boy would,
[A]   Get a sweet thing on the side,
[A]   Home cooking, homicide,
[D]   Side order, could be your daughter,
[E]   Fingerlicking good
Intro riff

Chorus:
[A]   Come on baby, eat the rich,
[A]   Put the bite on the son of a bitch,
[D]   Don't mess around, don't give me no switch,
Intro riff
C'mon baby and eat the rich
Intro riff
C'mon baby and eat the rich

riff 1
[A]   Sittin' down in a restaurant,
[A]   Tell the waiter just what you want
[E]   Is that the meat,[D] you wanted to eat,
[E]   How would you ever know?
[A]   Hash browns an' bacon strips,
[A]   I love the way that you lick your lips,
[D]   No fooling, I can see you drooling,
[E]   Feel the hunger grow

Intro riff

Chorus

Solo backing:
   [B]    [F#]    [B]    [F#]    [D]    [A]    [F]    [C]    [E]                                     
e|---|---|---|---|---|---|---|---|---|--------|
B|---|---|---|---|---|---|---|---|---|--------|
G|-4-|---|-4-|---|-7-|---|10-|---|-9-|-Intro--|
D|-4-|-4-|-4-|-4-|-7-|-7-|10-|10-|-9-|-riff---|
A|-2-|-4-|-2-|-4-|-5-|-7-|-8-|10-|-7-|--------|
E|---|-2-|---|-2-|---|-5-|---|-8-|-0-|--------|

riff 1
[A]   I eat you, baby you eat me
[A]   Eat two, get one free
[E]   Shetland pony,[D] extra pepperoni
[E]   Just pick up the phone,
[A]   Eat greek, or eat chinese,
[A]   Eat salad, or scarf up grease
[D]   You're on the shelf, you eat yourself,
[E]   Come on, bite my bone

Intro riff

Chorus

Important: The song above is NOT stored on the Chordie server. The original song is hosted at www.guitaretab.com. Chordie works as a search engine and provides on-the-fly formatting. Chordie does not index songs against artists'/composers' will. To remove this song please click here.

Text color:
Chord color:
Chord grids: 
Font size:    
Page size: 

A B C D E F F#
variations - click chord images

Login - add to songbook

Transpose chords

Tuning

Rating click stars to rate

Layout
Accuracy

SHARE PAGE  




You need to log in to post comments