Sailor Tattoos

Movielife

eb    |-0----0-0-0--0----0-0-0--0----0-0-0---0----0-0-0----------|

Bb |-0----0-0-0--0----0-0-0--0----0-0-0---0----0-0-0----------|
Gb |-1----1-1-1--2----2-2-2--1----1-1-1---4----4-4-4----------|
Db |-2----2-2-2--2----2-2-2--2----2-2-2---4----4-4-4----------|
Ab |-2----2-2-2--0----0-0-0--2----2-2-2---2----2-2-2----------|
Eb |-0----0-0-0--------------0----0-0-0-----------------------|
 EAsus2EBsus4
Chorus – chords held for twice as long as in they are in the verse
eb    |-0----0-0-0--0----0-0-0--0----0-0-0---0----0-0-0----------|
Bb    |-0----0-0-0--0----0-0-0--0----0-0-0---0----0-0-0----------|
Gb    |-6----6-6-6--1----1-1-1--2----2-2-2---4----4-4-4----------|
Db    |-6----6-6-6--2----2-2-2--2----2-2-2---4----4-4-4----------|
Ab    |-4----4-4-4--2----2-2-2--0----0-0-0---2----2-2-2----------|
Eb    |-------------0----0-0-0-----------------------------------|

 C#m7EAsus2Bsus4
Bridge – hold ‘em and bash ‘em a bit listen to song for timing
eb    |-0----0-0-0--0----0-0-0--0----0-0-0---0----0-0-0----------|
Bb    |-0----0-0-0--0----0-0-0--0----0-0-0---0----0-0-0----------|
Gb    |-4----4-4-4--6----6-6-6--4----4-4-4---4----6-6-6----------|
Db    |-6----6-6-6--6----6-6-6--6----6-6-6---4----6-6-6----------|
Ab    |-6----6-6-6--4----4-4-4--6----6-6-6---4----4-4-4----------|
Eb    |----------------------------------------------------------|

 G#m/D#C#m7G#m/D#C#m7
Final Chorus
eb    |-0----0-0-0--0----0-0-0--0----0-0-0---0----0-0-0----------|
Bb    |-0----0-0-0--0----0-0-0--0----0-0-0---0----0-0-0----------|
Gb    |-6----6-6-6--2----2-2-2--1----1-1-1---4----4-4-4----------|
Db    |-6----6-6-6--2----2-2-2--2----2-2-2---4----4-4-4----------|
Ab    |-4----4-4-4--0----0-0-0—-2----2-2-2---2----2-2-2----------|
Eb    |-------------------------0----0-0-0-----------------------|

 C#m7Asus2EBsus4
Train station knows every word you said.
Vacation from all the games we played.

(I turn away) Long Island's calling me.
(I lost it all) My clothes smell like the city.
(Leave me for dead) The train will get me home.
(Drag me away) I don't know what's good for me.
I don't know what's good for me.

Every bone in my body breaks (brakes) for you.
Believe me, 'cause by now I can barely move.

(I turn away) Long Island's calling me.
(I lost it all) My clothes smell like the city.
(Leave me for dead) The train will get me home.
(Drag me away) I don't know what's good for me.

Never let someone become, Never let someone become,
Never let someone become, Never let someone become everything. Everything.

(I turn away) Long Island's calling me.
(I lost it all) My clothes smell like the city.
(Leave me for dead) The train will get me home.
(Drag me away) Drag me away.


Asus2 Bsus4 C#m7 E G#m/D#
variations - click chord images
Transpose chords:
Tuning:
Cool service:
View: Size:
A  A  A
Rating:
Layout:
  • Currently 3.1/5 Stars.
  • 1
  • 2
  • 3
  • 4
  • 5
 
Accuracy:
  • Currently 3.2/5 Stars.
  • 1
  • 2
  • 3
  • 4
  • 5
 
click stars to rate
Chordie recommends:
Check out JamPlay.com for online video guitar lessons
Songbook:
Login to add this song to your songbook
Support the artist
Preview/buy this song
MSN Music
Why this non-profit ad?

 
login to add comments/video/corrections