Be With You

Mr. Big

 C#mE
 Hold on little girl,
 AsusE
 Show me what his done to you.
 C#mE
 Stand up little girl,
 AsusE
broken heart can't be that bad.

 Asus
When its throught,
 E
Its trought.
 AsusE
 Fate will twist the both of you.
 D
So comeone baby,

Comeon over.
 B
 Let me be the one to show you.

(Chorus)
 EAsusBE
 Im the one who wants to be with you,
 EAsusBE
 Deep inside i hope you feel it to.
 EAsusBE
 Waited on a line of greens and blues,
 EAsusBE
 Just to be the next to be with you.

(No chord in between the chorus and vers 2. Just hop to the first chord on the Vers2
you finished the chorus )

(Vers2)
 C#mE
 Bulid up you confidence,
 AsusE
So you can be on top for once.
 C#mE
 Wake uo who cares about,
Ásus E
Little boys that talks to much.

 AsusE
Ive seen it, all go down,
 EAsus
Your game of love was all rained out.
 D
So comeone baby,

Comeon over,
 B
 Let me be the one to hold you.

(Chorus)

 EAsusBE
 Im the one who wants to be with you,
 EAsusBE
 Deep inside i hope you feel it to.
 EAsusBE
 Waited on a line of greens and blues,
 EAsusBE
 Just to be the next to be with you.

(Bridge)
 Asus
  Why be alone,
 C#m
When we can be together baby.
 G
 You can make my life worthwhile,
 G
And i can make you start to smile.

(SOLO)

e|---------------------------------------------------4--2--2h4p2p0--2-------|
B|----------5--------------------------------5-------5--0--0----------------|
G|-1--2--4--4--5/6--4--4--4---------1--2--4--4--5/6-------------------------|
D|-2--4--6-----6/7--6--4--4h6p4h6---2--4--6-----6/7-------------------------|
A|--------------------------------------------------------------------------|
E|---------------------------------------------------------------------0----|
e|--------------------------------------------------------------------------|
B|----------5-----------7--9--9--------------12---10---9h10p9-12------------|
G|-1--2--4--4--5/6--4---8--9--9------------9----9----9-----------9~---------|
D|-2--4--6-----6/7--6---9--11--11------9h11------------------------11\------|
A|---------------------------------9/11-------------------------------------|
E|--------------------------------------------------------------------------|
e|--4--2--2h4p2p0--2--12+---------------------------------------------------|
B|--5--0--0-----------12+---------------------------------------------------|
G|-------------------------11~/13~------------------------------------------|
D|--------------------------------------------------------------------------|
A|--------------------------------------------------------------------------|
E|-------------------------0------------------------------------------------|

!!!! I copyed this Solo tab from "DAVE" !!!!
(SOLO chords are: E, Asus, B, E! Same as Chorus)

 Asus
When its throught,
 E
Its trought.
 AsusE
 Fate will twist the both of you.
 D
So comeone baby,

Comeon over.
 B
 Let me be the one to show you.

(Change tone up. Chorus)
 GCDG
 Im the one who wants to be with you,
 GCDG
 Deep inside i hope you feel it to.
 GCDG
 Waited on a line of greens and blues,
 GCDG
 Just to be the next to be with you.

(Now change tone back to E, Asus, B, E)

 EAsusBE
 Im the one who wants to be with you,
 EAsusBE
 Deep inside i hope you feel it to.
 EAsusBE
 Waited on a line of greens and blues,
 EAsusBE
 Just to be the next to be with you.


Asus B C C#m D E G
variations - click chord images
Transpose chords:
Tuning:
Cool service:
View: Size:
A  A  A
Rating:
Layout:
  • Currently 3.1/5 Stars.
  • 1
  • 2
  • 3
  • 4
  • 5
 
Accuracy:
  • Currently 3/5 Stars.
  • 1
  • 2
  • 3
  • 4
  • 5
 
click stars to rate
Songbook:
Login to add this song to your songbook
IMPORTANT: The song above is NOT stored on the Chordie server. The original song is hosted at www.guitaretab.com. Chordie works as a search engine and provides on-the-fly formating. Chordie does not index songs against artists/composers will. To remove this song please click here.

 
login to add comments/video/corrections