Guitar Tabs, Chords and Lyrics


Alive And Kickin  Mr. Big

[5/4] Gtr I
   |------6-------|  |-----6------|  |----6-----| |----6----| |----6----|

S S S S S S S S S S S S S S S S S S S S S S S S S S S S S S
|-14-12-11----------------------------------------------------------------|
|----------13-12-10-------------------------7-5-4-------------------------|
|-------------------12-11-9-----------------------5-4-2-------------------|
|---------------------------13-10-9---------------------5-4-2-------------|
|-----------------------------------12-10-9-------------------6-3-2-------|
|-------------------------------------------------------------------5-3-2-|



Theme I
[4/4] E. S  E E E E  E E   E E E E  E  E E  E   E E  E E E. S  E E
|--------------------|--------------------|---------------------|
|--------------------|--------------------|---------------------|
|-------------9------|---8----------------|---------------------|
|---------7-9---10-9-|-7---9-7----10-7----|---9--------------7--|
|-7--9-10------------|---------10------10-|-9---10-9-7--9-10----|
|--------------------|--------------------|---------------------|



  [E]  [E]   [E]  [E]  [E]  [E]  [E]  [E]     [E]   [E]  [E]   [E]  [E]  [E]   [E]  [E]                                         
|------------------|---------------------|
|------------------|---------------------|
|---9--------8-----|---------------------|
|-9---10-9-7---9-7-|----10-7------9------|
|------------------|-10------10-9---10-9-|
|------------------|---------------------|

  [Em]S S E  S S  E S S E S S E   S S E S S E  H
|---------------------------|-------7-6-7-12----|
|---------------------------|-8-7-8-------------|
|---------------------9-8-9-|-------------------|
|---------------9-8-9-------|-------------------|
|-7-6-7-10-9-10-------------|-------------------|
|---------------------------|-------------------|



Theme II
  [Am/C]S  S  S  S S  S  S  S [Em/B]S  S  S  S S  S  S  S
|-8-12-11-12-8-12-11-12-7-12-11-12-7-12-11-12-|
|---------------------------------------------|
|---------------------------------------------|
|---------------------------------------------|
|---------------------------------------------|
|---------------------------------------------|



  [Am] S  S  S  S  S  S  S  S [Em/G]S  S  S  S S  S  S  S
|----12-11-12----12-11-12---12-11-12---12-11-12-|
|-10----------10----------8----------8----------|
|-----------------------------------------------|
|-----------------------------------------------|
|-----------------------------------------------|
|-----------------------------------------------|



  [B/F#]S  S S  S S  S S  S [Em/G]S  S  S  S S  S  S  S
|---11-9-11---11-9-11---12-11-12---12-11-12-|
|-7---------7---------8----------8----------|
|-------------------------------------------|
|-------------------------------------------|
|-------------------------------------------|
|-------------------------------------------|



  [B] S  S  S  S  S  S  S  S S  S  S S  S  S S S
|-14-12-11------------------------------------|
|----------13-12-10---------------------------|
|-------------------12-11-9-------------------|
|---------------------------13-10-9-----------|
|-----------------------------------12-10-9-6-|
|---------------------------------------------|



Theme I
  [Em]E. S  E E E E  E E   [B7/A]E E E E [Em/G] E  E E  E   [B/F#]E E  E E [Em]E. S  E E
|--------------------|--------------------|--------------------|
|--------------------|--------------------|--------------------|
|-------------9------|---8----------------|--------------------|
|---------7-9---10-9-|-7---9-7----10-7----|---9--------------7-|
|-7--9-10------------|---------10------10-|-9---10-9-7--9-10---|
|--------------------|--------------------|--------------------|



  E E  E E [B7/A]E E E E   [Em/G] E  E E  E [B/F#]E E  E E   [Em] S S E +Q   +H
|------------------|---------------------|--------------------|
|------------------|---------------------|--------------------|
|---9--------8-----|---------------------|--------------------|
|-9---10-9-7---9-7-|----10-7------9------|--------------------|
|------------------|-10------10-9---10-9-|-10-9-7-(7)--(7)----|
|------------------|---------------------|--------------------|				


Important: The song above is NOT stored on the Chordie server. The original song is hosted at www.guitaretab.com. Chordie works as a search engine and provides on-the-fly formatting. Chordie does not index songs against artists'/composers' will. To remove this song please click here.

Text color:
Chord color:
Chord grids: 
Font size:    
Page size: 

Am Am/C B B/F# E Em Em/B
variations - click chord images

Login - add to songbook

Transpose chords

Tuning

Rating click stars to rate

Layout
Accuracy

SHARE PAGE  




You need to log in to post comments