Nothing Like It In The World

Mr. Big

e -------------------------------------------------------------------|

B --5--------6----------------5-6-5--8----5------6---------------7b--|
G --5-7------5----5\---0------5-5-5--5----5------5--5\--------5------|
D --5----5/7------5\---0--5/7-------------5--5/7----5\----5/7--------|
A -------------------------------------------------------------------|
E -------------------------------------------------------------------|

 CDm7G
 Love is a stranger you didn't plan on
 CDm7G
 Turns you to a victim or a volunteer
 CDm7G
It can disappear like a rose in a garden
Eb D C Bb Ab G C...
There's nothing like it in the world
 Dm7G
You can swear to God that it's over
 CDm7G
 Tell a crippled heart to play dead
 CDm7G
There's no way to stop looking over your shoulder
Eb D C Bb Ab G Eb...
There's nothing like it in the world

CHORUS:

Bb Ab (Ab, G, F)
There's nothing like the weight when it's lifted
Eb Bb Ab (Ab, G, F)
There's nothing like a dream where you learn how to fly
 EbBbFm
 I know for sure, 'cause I've been there before
 AbBbEb
There's nothing like it in the world

VERSE:

 CDm7G
 Somewhere in a smile there's an invitation
 CDm7G
 Calling you back into the dance
 CDm7G
You can't deny such a high from a beautiful moment
Eb D C Bb Ab G Eb...
There's nothing like it in the world

CHORUS:

Bb Ab (Ab, G, F)
There's nothing like the weight when it's lifted
Eb Bb Ab (Ab, G, F)
There's nothing like a dream where you learn how to fly
 EbBbFm
 I know for sure, 'cause I've been there before
 AbBbEb
There's nothing like it in the world

SOLO:

e -------------------------------------------------------------------------|
B ------------------------------------------------------------/10--8--10---|
G ---/9-9b-7b--5-4-5-4-----------------------------5--9b-7-----------------|
D -5-------------------5--------------5---------7----------10--------------|
A -----------------------7--5--3-5/7-----7--7/8----------------------------|
E -------------------------------------------------------------------------|
e ------15-15-15b-15-15-13-----13------------------------------------------|
B -------------------------15b----15b15-13--15b-/20-13-/15-----------------|
G -7/9-----------------------------------------------------12-12/14--------|
D -----------------------------------------------------------------14-12---|
A -------------------------------------------------------------------------|
E -------------------------------------------------------------------------|
e ---------------------------------------8--11--13b------13----------------|
B --------------------------------8--11------------------------------------|
G -------------------------8--10-------------------------------------------|
D --13--12--10------8--10--------------------------------------------------|
A --------------13---------------------------------------------------------|
E -------------------------------------------------------------------------|


CHORUS:

Eb Bb Ab (Ab, G, F)
There's nothing like the weight when it's lifted
Eb Bb Fm (C, C#,)
There's nothing like a dream where you learn how to fly With no compromise
 EbBbFm
 I know for sure, cause I've been there before
 AbBbDb
There's nothing like it in the world


Ab Bb C Db Dm7 Eb Fm G
variations - click chord images
Transpose chords:
Tuning:
Cool service:
View: Size:
A  A  A
Rating:
Layout:
  • Currently 3/5 Stars.
  • 1
  • 2
  • 3
  • 4
  • 5
 
Accuracy:
  • Currently 3.1/5 Stars.
  • 1
  • 2
  • 3
  • 4
  • 5
 
click stars to rate
Chordie recommends:
Learn how to play guitar at JamPlay.com
Songbook:
Login to add this song to your songbook
Support the artist
Preview/buy this song
MSN Music
Why this non-profit ad?

 
login to add comments/video/corrections