Guitar Tabs, Chords and Lyrics


Sackcloth And Ashes   Mr T Experience


e|----------5---7----------|



b|----------5---7----------|



g|--9---11--6---8---6---7--|



d|--9---11--7---9---6---7--|



a|--7---9---5---9---4---5--|



e|----------5---7----------|



e|--0---2---0-------2--|



b|--0---2---2-------3--|



g|--1---3---2---4---2--|



d|--2---4---2---4---0--|



a|--2---4---0---2------|



e|--0---2--------------|



Important: The song above is NOT stored on the Chordie server. The original song is hosted at www.guitaretab.com. Chordie works as a search engine and provides on-the-fly formatting. Chordie does not index songs against artists/composers will. To remove this song please click here.

This song is displayed as text-only. Transposing and tuning is only available for chordpro-songs.

Login - add to songbook

Rating click stars to rate

Layout
Accuracy

SHARE PAGE  




You need to log in to post comments