Chordie logo

Gimme Your Love   Msg



If you have a more accurate version of this song or any questios you wanna ask
me, please send me an e-mail to nabo_45@hotmail.com

The guitars are tuned 1/4 a step down.

Legend:
~ = vrabrato
p = pull off
b = bend
r = release note from bend
h = hammer on
+ = tap
w = whammy bar
/ = slide
/X = pick slide
pm = palm mute
(ps) = pick squeel or pinch harmonic
DB = dive bomb
/-\ = slide up and back down the neck quickly on that string

Intro:

E--------------------|
B--------------------|
G---------------7-7--|
D-9-9-9-9--9--9-7-7--|
A-7-7-7-7--7--7------|
E--------------------| x3


E----------------------------|
B----------------------------|
G--------------7-------------|
D-9-9-9-9-9--9-7-----------2-|
A-7-7-7-7-7--7-------------0-|
E----------------0-2b3b2-0---| x1

Intro guitar figure 2, palm mute:

E------------------------------------------|
B------------------------------------------|
G-6-7-6-4-4-2-2--2-1--1-2-1--1-1--1-2-1--1-|
D-7-9-7-5-5-4-4--4-2--2-4-2--2-2--2-4-2--2-|
A------------------------------------------|
E------------------------------------------| x1

Verse:
"Bet ya gettin the wrong idea 'bout me.."
E------------------------------------------|
B------------------------------------------|
G-6-7-6-4-4-2-2--2-1--1-2-1--1-1--1-2-1--1-|
D-7-9-7-5-5-4-4--4-2--2-4-2--2-2--2-4-2--2-|
A------------------------------------------|
E------------------------------------------| x1 Palm mute

"I tell you something, then mayby again I wont.."
E--------------------------------------------|
B--------------------------------------------|
G-6-7-6-4-4-2-2--2-1--1-2-1--1-1--1-2-1--1---|
D-7-9-7-5-5-4-4--4-2--2-4-2--2-2--2-4-2--2-7-|
A------------------------------------------5-|
E--------------------------------------------| x1 Palm mute, except the last power chord.

"Time after time..."
E-----------------------------------------------|
B-----------------------------------------------|
G-----------------------------------------------|
D-5-7-5-7------------------3-5-3-5--------------|
A-3-5-3-5-3-5-7b8(ps)-5-3--1-3-1-3--------------|
E-----------------------------------------------| x1

"Don't waste my time..."
E--------------------------------------------|
B--------------------------------------------|
G--------------------------------------------|
D-5-7-5-7------------------3-5-3-5--3-7------|
A-3-5-3-5-3-5-7b8(ps)-5-3--1-3-1-3--1-5------|
E--------------------------------------------| x1

Chorus:

"Gimme your love..."
E--------------------|
B--------------------|
G---------------7-7--|
D-9-9-9-9--9--9-7-7--|

A-7-7-7-7--7--7------|
E--------------------| x3

E----------------------------|
B----------------------------|
G--------------7-------------|
D-9-9-9-9-9--9-7-----------2-|
A-7-7-7-7-7--7-------------0-|
E----------------0-2b3b2-0---| x1


1st. Solo:

E-15b17-12p15p12-------------------22b24-22-19p20p19-|
B----------------12-------------12-------------------|
G-------------------14p13p14p13----------------------|
D----------------------------------------------------|
A----------------------------------------------------|
E----------------------------------------------------|



Important: The song above is NOT stored on the Chordie server. The original song is hosted at www.guitaretab.com. Chordie works as a search engine and provides on-the-fly formatting. Chordie does not index songs against artists/composers will. To remove this song please click here.

This song is displayed as text-only. Transposing and tuning is only available for chordpro-songs.

Login - add to songbook

Rating click stars to rate

Layout
Accuracy

SHARE PAGE  

You need to log in to post comments