Guitar Tabs, Chords and Lyrics


Kagayaku Sekai  Mucc

E|----------------| (15x)


B|----------------|


G|2~------2~------|

D|0~--------------|
A|--------3~------|
E|----------------|
E|--------------------------------------------| (8x)
B|--------------------------------------------|
G|--2h4-4---2h4-4---2h4---2h4-4---2h4-4---2h4-|
D|2-------2-------2---------------------------|
A|----------------------3-------3-------3-----|
E|--------------------------------------------|
  [Em/B]     [Bm]     [C]     [G]     [C]     [G]     [C]     [D]                                                 
E|7----7----8----3----8----3----8----10----|  (2x)
B|8----7----8----3----8----3----8----10----|  (strum on 1, 3 and 4)
G|9----7----9----4----9----4----9----11----|
D|9----9----10---5----10---5----10---12----|
A|7----9----10---5----10---5----10---12----|
E|7----7----8----3----8----3----8----10----|

(these are the chords. they might sound a bit high because of the standard tuning
but they are correct and you can transcribe them to 7-string easily)

Bridge:
  [C5/G]         [D5/A]     [E5/B]                                                                      
E|----------------------------| (4x)
B|----------------------------|
G|55-55-55-77---99-99-99-99---|
D|55-55-55-77---99-99-99-99---|
A|33-33-33-55---77-77-77-77---|
E|33-33-33-55---77-77-77-77---|


[C5/G]         [D5/A]                                                                            
E|--------------|
B|--------------|
G|55-55-55-77---|
D|55-55-55-77---|
A|33-33-33-55---|
E|33-33-33-55---|


Interlude:

E|15~~~------------14--12------------| (3x)
B|------------------------12~--------|
G|-----------------------------------|
D|-----------------------------------|
A|-----------------------------------|
E|-----------------------------------|
E|15~~~------------14--\\---------------------------------|
B|---------------------\\---------------------------------|
G|---------------------\\------------------------------4~-|
D|---------------------\\------------------------------4~-|
A|---------------------\\------------------------------2~-|
E|---------------------\\7-8-7-5-7-5-3-5-3-2-3-2-0-2-0-2~-|

(slide down
all strings)

E|---------/------|
B|---------/------|

G|44-44-444/555555
D|44-44-444/555555
A|22-22-222/333333
E|22-22-222/333333
* * **

(* means palm muted)

repeat Chorus (2x)

Outro:

E|----------------------------| (7x)
B|----------------------------|
G|5555-7777-99999999----------|
D|5555-7777-99999999----------|
A|3333-5555-77777777----------|
E|3333-5555-77777777----------|
E|----------------------------| (2x)
B|----------------------------|
G|5555-7777-9999-987----------|
D|5555-7777-9999-987----------|
A|3333-5555-7777-765----------|
E|3333-5555-7777-765----------|
E|----------------------------|
B|----------------------------|
G|5555-7777-9999-12121212-----|
D|5555-7777-9999-12121212-----|
A|3333-5555-7777-10101010-----|
E|3333-5555-7777-10101010-----|
E|----------------------------|
B|----------------------------|
G|5555-7777-9999~-------------|
D|5555-7777-9999~-------------|
A|3333-5555-7777~-------------|
E|3333-5555-7777~-------------|				


Important: The song above is NOT stored on the Chordie server. The original song is hosted at www.guitaretab.com. Chordie works as a search engine and provides on-the-fly formatting. Chordie does not index songs against artists'/composers' will. To remove this song please click here.

Text color:
Chord color:
Chord grids: 
Font size:    
Page size: 

Bm C C5/G D D5/A E5/B Em/B G
variations - click chord images

Login - add to songbook

Transpose chords

Tuning

Rating click stars to rate

Layout
Accuracy

SHARE PAGE  




You need to log in to post comments