Into The Drink

Mudhoney

 EGAB
1|--------------|-----------------------|-----------------|-7-7-7-7-7-7--|
2|--------------|-----------------------|-----------------|-7-7-7-7-7-7--|
3|--------------|-----------------------|-----------------|-6-6-6-6-6-6--|
4|--2--2--0--2--|--5--5--5--5--3--5--3--|--7--7--5--7--7--|-9-9-9-9-9-9--|
5|--2--2--0--2--|--5--5--5--5--3--5--3--|--7--7--5--7--7--|-9-9-9-9-9-9--|
6|--0--0--0--0--|--3--3--3--3--3--3--3--|--5--5--5--5--5--|-7-7-7-7-7-7--|


mess it ba-by / mess it hard / mess it all the time...

*******************************************************************************

Bridge:
```````
--------------------

|G / A / E|===> play these chords, example:
--------------------


 GAE
well i dont have what you want
 GAE
and i dont care what you think...

*******************************************************************************

Chorus:
``````'

 GA
  / / / / / /      (n.c.)

 ------------------ Into the drink!


******************************************************************************

Please submit more mudhoney songs!!!
and hey , if anyone has ALICE IN CHAINS's "What the hell have i?"'s
tabs, or knows it, PLEASE I"M DESPRATE!






A B E G
variations - click chord images
Transpose chords:
Tuning:
Cool service:
View: Size:
A  A  A
Rating:
Layout:
  • Currently 3.3/5 Stars.
  • 1
  • 2
  • 3
  • 4
  • 5
 
Accuracy:
  • Currently 2.7/5 Stars.
  • 1
  • 2
  • 3
  • 4
  • 5
 
click stars to rate
Chordie recommends:
Learn how to play guitar at JamPlay.com
Songbook:
Login to add this song to your songbook
Support the artist
Preview/buy this song
MSN Music
Why this non-profit ad?

 
login to add comments/video/corrections