Chordie logo


Animal   Mudmen



"Animal" by Mudmen
Tabbed by KOS187JACK
Tuning Standard - E,A,D,G,B,e.

Intro (Both Guitars)

e|-----------------------------------------|
B|-----------------------------------------|
G|---------------------7-7-7-7-7-----------|
D|-2-2-2-2-2-5-5-5-5-5-7-7-7-7-7-7-7-7-7-7-|
A|-2-2-2-2-2-5-5-5-5-5-5-5-5-5-5-7-7-7-7-7-|
E|-0-0-0-0-0-3-3-3-3-3-----------5-5-5-5-5-|
                                                X 2
e|-----------------------------------------|
B|-----------------------------------------|
G|---------------------7-7-7-7-7-7-7-7-7-7-|
D|-2-2-2-2-2-5-5-5-5-5-7-7-7-7-7-7-7-7-7-7-|
A|-2-2-2-2-2-5-5-5-5-5-5-5-5-5-5-5-5-5-5-5-|
E|-0-0-0-0-0-3-3-3-3-3---------------------|

Pre Verse Guitar 1

e|-----------------------------------------|
B|-----------------------------------------|
G|---------------------7-7-----------------|
D|-2-2-------5-5-------7-7-------7-7-------|     X 2
A|-2-2-------5-5-------5-5-------7-7-------|
E|-0-0-------3-3-----------------5-5-------|

Pre verse Bagpipe-y bit on Guitar 2             Play at same time with Guitar 1

e|------------------------------------------|
B|------------------------------------------|
G|-9-7/11-7-9-7-9/10\9-7-9-7/11-7-9-4-4-4-4-|
D|------------------------------------------|    Let Ring
A|-7-5/9--5-7-5-7/8-\7-5-7-5/9--5-7-2-2-2-2-|
E|------------------------------------------|

Verse (Bass)

G|-----------------------------------------|
D|-----------------------------------------|
A|---------------------5-5-5-5-5-----------|
E|-0-0-0-0-0-3-3-3-3-3-----------5-5-5-5-5-|
                                                X 2
G|-----------------------------------------|
D|-----------------------------------------|
A|---------------------5-5-5-5-5-5-5-5-5-5-|
E|-0-0-0-0-0-3-3-3-3-3---------------------|

Then...
Guitar 2 (Palm Muted) and Bass Together

e|-----------------------------------------|
B|-----------------------------------------|
G|---------------------7-7-7-7-7-----------|
D|-2-2-2-2-2-5-5-5-5-5-7-7-7-7-7-7-7-7-7-7-|
A|-2-2-2-2-2-5-5-5-5-5-5-5-5-5-5-7-7-7-7-7-|
E|-0-0-0-0-0-3-3-3-3-3-----------5-5-5-5-5-|
                                                X 2
e|-----------------------------------------|
B|-----------------------------------------|
G|---------------------7-7-7-7-7-7-7-7-7-7-|
D|-2-2-2-2-2-5-5-5-5-5-7-7-7-7-7-7-7-7-7-7-|
A|-2-2-2-2-2-5-5-5-5-5-5-5-5-5-5-5-5-5-5-5-|
E|-0-0-0-0-0-3-3-3-3-3---------------------|

Pre Chorus Both Guitars

e|-----------------------------------------|
B|-----------------------------------------|
G|-----------------------------------------|
D|-5---------9---------7-7-7-7-7-7-7-7-7-7-|     X 2
A|-5---------9---------7-7-7-7-7-7-7-7-7-7-|
E|-3---------7---------5-5-5-5-5-5-5-5-5-5-|

Bass Pre Chorus

G|-----------------------------------------|
D|-----------------------------------------|
A|-----------------------------------------|     X 2
E|-3---------7---------5-5-5-5-5-5-5-5-5-5-|

Chorus Both Guitars

e|-----------------------------------------|
B|-----------------------------------------|
G|---------------------7-7-7-7-7-----------|
D|-2-2-2-2-2-5-5-5-5-5-7-7-7-7-7-7-7-7-7-7-|
A|-2-2-2-2-2-5-5-5-5-5-5-5-5-5-5-7-7-7-7-7-|
E|-0-0-0-0-0-3-3-3-3-3-----------5-5-5-5-5-|
                                                X 2
e|-----------------------------------------|
B|-----------------------------------------|
G|---------------------7-7-7-7-7-7-7-7-7-7-|
D|-2-2-2-2-2-5-5-5-5-5-7-7-7-7-7-7-7-7-7-7-|
A|-2-2-2-2-2-5-5-5-5-5-5-5-5-5-5-5-5-5-5-5-|
E|-0-0-0-0-0-3-3-3-3-3---------------------|

Pre verse Guitar 1 X 2
Pre verse Guitar 2 X 1
Verse Bass X 2
Verse Bass and Guitar 2 X 2
Pre Chorus X 2
Chorus X 2
Solo (Note: This is done on bagpipes or something, so this was
the closest i could figure it out to the guitar)

e|--------------------------------------|
B|--------------------------------------|
G|-----9---11---12-------14---12---11---|
D|-9-9---9----9----9-9-9----9----9----9-|        X 2
A|--------------------------------------|
E|--------------------------------------|

Bass during solo

G|---------------------------------|
D|---------------------------------|
A|---------------------------------|             X 2
E|-0-0-3-0-5-0-7-0-0-0-7-0-5-0-3-0-|

Pre Verse Gt 1 and Gt 2 X 6
Verse Gt 1 and Gt 2 X 8


Important: The song above is NOT stored on the Chordie server. The original song is hosted at www.guitaretab.com. Chordie works as a search engine and provides on-the-fly formatting. Chordie does not index songs against artists/composers will. To remove this song please click here.

This song is displayed as text-only. Transposing and tuning is only available for chordpro-songs.

Login - add to songbook

Rating click stars to rate

Layout
Accuracy

Jango Player

SHARE PAGE  




You need to log in to post comments