Chordie logo

Internal Primates Forever   Mudvayne



This song is a beast and my fav by Mudvayne. The only thing mor fun than tabbin it out 
being able 2 play thru the whole thing without stoppin. I really hope whoevr cheks this 
wil feel the same way.

*=Quik Pause
.=Palm Mute
/=Slide Up
h=Hammer On
p=Pull Off

INTRO:
|----------------------------|
|----------------------------|
|----------------------------|
|----------------------------|
|----------------------------|
|-4-0-1*--1-0-1*--0-0-3-2-3*-|

CHORUS 1:
|----------------------------|
|----------------------------|
|----------------------------|
|----------------------------|
|-4-0-1*--1-0-1*--0-0-3-2-3*-|
|-4-0-1*--1-0-1*--0-0-3-2-3*-|

FILL 1:
|----------------------------------|
|----------------------------------|
|----------------------------------|
|----------------------------------|
|-4-0-1*--1-0-1*--1-0*--1-0*----0*-|
|-4-0-1*--1-0-1*--1-0*--1-0*----0*-|

VERSE:
|-----------------------|
|-----------------------|
|---7-------7---------7-|
|-6---6-0-6---6-0-6-0-6-|
|-----------------------|
|-----------------------|
      . .     . . . .

BRIDGE 1:
|---------------------------------|
|---------------------------------|
|-7-7-7-------------3-3-3-5-5-6-6-|
|-------3-3-3-5-5-5---------------|
|---------------------------------|
|---------------------------------|
  . . . . . . . . . . . . . . . .

BRIDGE 2:
|----------------------------------------|
|----------------------------------------|
|----------------------------------------|
|----------------------------------------|
|-12-12-12-3-3-3-5-5-5-8-8-8-10-10-11-11-|
|-12-12-12-3-3-3-5-5-5-8-8-8-10-10-11-11-|

BRIDGE 3:
|-------------------------------------|
|-------------------------------------|
|-------------------------------------|
|-------------------------------------|
|-12-12-12-10-10-10-9-9-9-8-8-8-7-7-7-|
|-12-12-12-10-10-10-9-9-9-8-8-8-7-7-7-|

INTERLUDE 1:
|--------------------------|
|--------------------------|
|--------------------------|
|--------------------------|
|-5-3-0-3-5-0-3--6-3-0-3/5-|
|-5-3-0-3-5-0-3--6-3-0-3/5-|

INTERLUDE 2:
|---------------------------------------------------------|
|-8-8-8-8-8-8-8-8-8-8-8-8-9-9-9-9-8-8-8-8-8-8-8-8-8-8-8-8-|
|-X-X-X-X-X-X-X-X-X-X-X-X-X-X-X-X-X-X-X-X-X-X-X-X-X-X-X-X-|
|-5-5-5-5-5-5-5-5-5-5-5-5-6-6-6-6-5-5-5-5-5-5-5-5-5-5-5-5-|
|---------------------------------------------------------|
|---------------------------------------------------------|

FILL 2:[No Pauses]
|-------|      |-------|
|-------|      |-------|
|-------| (6x) |-------|
|-------|      |-------|
|-63035-|      |-63030-|
|-63035-|      |-63030-|

FILL 4:
|---------------|
|---------------|
|---------------|
|---------------|
|-0h2-0h2-3p0-2-|
|-0h2-0h2-3p0-2-|

CHORUS 2:
|---------------------------|
|---------------------------|
|---------------------------|
|---------------------------|
|-4p0-1p0-1p0-1p0-0-0-3-2-3-|
|-4p0-1p0-1p0-1p0-0-0-3-2-3-|

OUTRO:
|-----------------------------|
|-----------------------------|
|-----------------------------| (4x)
|-----------------------------|

|-4-3-0-7-6--X--4-3-0-7-6-0-3-|
|-4-3-0-7-6--X--4-3-0-7-6-0-3-|

|--------------------------------|
|--------------------------6-6-6-|
|--------------------------4-4-4-| (8x)
|--------------------------3-3-3-|
|-4-3-0-7-6--4-3-0-7-6-0-0-------|
|-4-3-0-7-6--4-3-0-7-6-0-0-------|

|---------------|
|---------------|
|---------------|
|---------------|
|-4-0-1*--1-0-1-|
|-4-0-1*--1-0-1-|

ORDER OF PLAYING:

INTRO (4X)
CHORUS 1 (7X)
FILL 1
VERSE (8X)
CHORUS 1 (4X)
VERSE (8X)
CHORUS 1 (4X)
BRIDGE 1
CHORUS 1 (3X)
FILL
BRIDGE 2 (2X)
BRIDGE 1 (3X)
BRIDGE 2 (3X)
BRIDGE 1 (4X)[Not Palmed 4th Time]
BRIDGE 2 (4X)
BRIDGE 3
INTERLUDE 1 (5X)
INTERLUDE 2 (2X)
INTERLUDE 1 (4X)
INTERLUDE 2 (2X)
INTERLUDE 1 (4X)
FILL 2
FILL 4
CHORUS 1 (4X)
CHORUS 2
OUTRO

Im sure its rite, but i kno sum1 wil disagree. Just make sum coments and if u hav ne 


Important: The song above is NOT stored on the Chordie server. The original song is hosted at www.guitaretab.com. Chordie works as a search engine and provides on-the-fly formatting. Chordie does not index songs against artists/composers will. To remove this song please click here.

This song is displayed as text-only. Transposing and tuning is only available for chordpro-songs.

Login - add to songbook

Rating click stars to rate

Layout
Accuracy

SHARE PAGE  



You need to log in to post comments